  0
SECTION
  2
HEADER
  9
$ACADVER
  1
AC1015
  9
$ACADMAINTVER
 70
    18
  9
$DWGCODEPAGE
  3
ANSI_1250
  9
$INSBASE
 10
0.0
 20
0.0
 30
0.0
  9
$EXTMIN
 10
0.0
 20
0.0
 30
0.0
  9
$EXTMAX
 10
3500.000000000001
 20
4950.0
 30
0.0
  9
$LIMMIN
 10
0.0
 20
0.0
  9
$LIMMAX
 10
3500.000000000001
 20
4950.0
  9
$ORTHOMODE
 70
     0
  9
$REGENMODE
 70
     1
  9
$FILLMODE
 70
     1
  9
$QTEXTMODE
 70
     0
  9
$MIRRTEXT
 70
     0
  9
$LTSCALE
 40
16.66666666666667
  9
$ATTMODE
 70
     1
  9
$TEXTSIZE
 40
0.2
  9
$TRACEWID
 40
0.05
  9
$TEXTSTYLE
  7
Standard
  9
$CLAYER
  8
0
  9
$CELTYPE
  6
ByLayer
  9
$CECOLOR
 62
   256
  9
$CELTSCALE
 40
1.0
  9
$DISPSILH
 70
     0
  9
$DIMSCALE
 40
1.0
  9
$DIMASZ
 40
1.799999999999999
  9
$DIMEXO
 40
0.0625
  9
$DIMDLI
 40
0.38
  9
$DIMRND
 40
0.0
  9
$DIMDLE
 40
0.0
  9
$DIMEXE
 40
0.18
  9
$DIMTP
 40
0.0
  9
$DIMTM
 40
0.0
  9
$DIMTXT
 40
0.2000000029802322
  9
$DIMCEN
 40
0.09
  9
$DIMTSZ
 40
0.0
  9
$DIMTOL
 70
     0
  9
$DIMLIM
 70
     0
  9
$DIMTIH
 70
     1
  9
$DIMTOH
 70
     1
  9
$DIMSE1
 70
     0
  9
$DIMSE2
 70
     0
  9
$DIMTAD
 70
     0
  9
$DIMZIN
 70
     0
  9
$DIMBLK
  1

  9
$DIMASO
 70
     1
  9
$DIMSHO
 70
     1
  9
$DIMPOST
  1

  9
$DIMAPOST
  1

  9
$DIMALT
 70
     0
  9
$DIMALTD
 70
     2
  9
$DIMALTF
 40
25.4
  9
$DIMLFAC
 40
1.0
  9
$DIMTOFL
 70
     0
  9
$DIMTVP
 40
0.0
  9
$DIMTIX
 70
     0
  9
$DIMSOXD
 70
     0
  9
$DIMSAH
 70
     0
  9
$DIMBLK1
  1

  9
$DIMBLK2
  1

  9
$DIMSTYLE
  2
Standard
  9
$DIMCLRD
 70
     0
  9
$DIMCLRE
 70
     0
  9
$DIMCLRT
 70
     0
  9
$DIMTFAC
 40
1.0
  9
$DIMGAP
 40
0.09
  9
$DIMJUST
 70
     0
  9
$DIMSD1
 70
     0
  9
$DIMSD2
 70
     0
  9
$DIMTOLJ
 70
     1
  9
$DIMTZIN
 70
     0
  9
$DIMALTZ
 70
     0
  9
$DIMALTTZ
 70
     0
  9
$DIMUPT
 70
     0
  9
$DIMDEC
 70
     4
  9
$DIMTDEC
 70
     4
  9
$DIMALTU
 70
     2
  9
$DIMALTTD
 70
     2
  9
$DIMTXSTY
  7
Standard
  9
$DIMAUNIT
 70
     0
  9
$DIMADEC
 70
     0
  9
$DIMALTRND
 40
0.0
  9
$DIMAZIN
 70
     0
  9
$DIMDSEP
 70
    46
  9
$DIMATFIT
 70
     3
  9
$DIMFRAC
 70
     0
  9
$DIMLDRBLK
  1

  9
$DIMLUNIT
 70
     2
  9
$DIMLWD
 70
    -2
  9
$DIMLWE
 70
    -2
  9
$DIMTMOVE
 70
     0
  9
$LUNITS
 70
     2
  9
$LUPREC
 70
     4
  9
$SKETCHINC
 40
0.1
  9
$FILLETRAD
 40
0.0
  9
$AUNITS
 70
     0
  9
$AUPREC
 70
     0
  9
$MENU
  1
.
  9
$ELEVATION
 40
0.0
  9
$PELEVATION
 40
0.0
  9
$THICKNESS
 40
0.0
  9
$LIMCHECK
 70
     0
  9
$CHAMFERA
 40
0.0
  9
$CHAMFERB
 40
0.0
  9
$CHAMFERC
 40
0.0
  9
$CHAMFERD
 40
0.0
  9
$SKPOLY
 70
     0
  9
$TDCREATE
 40
2457148.258741366
  9
$TDUCREATE
 40
2457148.175408033
  9
$TDUPDATE
 40
2457148.258741366
  9
$TDUUPDATE
 40
2457148.175408033
  9
$TDINDWG
 40
0.0001190856
  9
$TDUSRTIMER
 40
0.0001190856
  9
$USRTIMER
 70
     1
  9
$ANGBASE
 50
0.0
  9
$ANGDIR
 70
     0
  9
$PDMODE
 70
     0
  9
$PDSIZE
 40
0.0
  9
$PLINEWID
 40
0.0
  9
$SPLFRAME
 70
     0
  9
$SPLINETYPE
 70
     6
  9
$SPLINESEGS
 70
     8
  9
$HANDSEED
  5
5EB
  9
$SURFTAB1
 70
     6
  9
$SURFTAB2
 70
     6
  9
$SURFTYPE
 70
     6
  9
$SURFU
 70
     6
  9
$SURFV
 70
     6
  9
$UCSBASE
  2

  9
$UCSNAME
  2

  9
$UCSORG
 10
0.0
 20
0.0
 30
0.0
  9
$UCSXDIR
 10
1.0
 20
0.0
 30
0.0
  9
$UCSYDIR
 10
0.0
 20
1.0
 30
0.0
  9
$UCSORTHOREF
  2

  9
$UCSORTHOVIEW
 70
     0
  9
$UCSORGTOP
 10
0.0
 20
0.0
 30
0.0
  9
$UCSORGBOTTOM
 10
0.0
 20
0.0
 30
0.0
  9
$UCSORGLEFT
 10
0.0
 20
0.0
 30
0.0
  9
$UCSORGRIGHT
 10
0.0
 20
0.0
 30
0.0
  9
$UCSORGFRONT
 10
0.0
 20
0.0
 30
0.0
  9
$UCSORGBACK
 10
0.0
 20
0.0
 30
0.0
  9
$PUCSBASE
  2

  9
$PUCSNAME
  2

  9
$PUCSORG
 10
0.0
 20
0.0
 30
0.0
  9
$PUCSXDIR
 10
1.0
 20
0.0
 30
0.0
  9
$PUCSYDIR
 10
0.0
 20
1.0
 30
0.0
  9
$PUCSORTHOREF
  2

  9
$PUCSORTHOVIEW
 70
     0
  9
$PUCSORGTOP
 10
0.0
 20
0.0
 30
0.0
  9
$PUCSORGBOTTOM
 10
0.0
 20
0.0
 30
0.0
  9
$PUCSORGLEFT
 10
0.0
 20
0.0
 30
0.0
  9
$PUCSORGRIGHT
 10
0.0
 20
0.0
 30
0.0
  9
$PUCSORGFRONT
 10
0.0
 20
0.0
 30
0.0
  9
$PUCSORGBACK
 10
0.0
 20
0.0
 30
0.0
  9
$USERI1
 70
     0
  9
$USERI2
 70
     0
  9
$USERI3
 70
     0
  9
$USERI4
 70
     0
  9
$USERI5
 70
     0
  9
$USERR1
 40
0.0
  9
$USERR2
 40
0.0
  9
$USERR3
 40
0.0
  9
$USERR4
 40
0.0
  9
$USERR5
 40
0.0
  9
$WORLDVIEW
 70
     1
  9
$SHADEDGE
 70
     3
  9
$SHADEDIF
 70
    70
  9
$TILEMODE
 70
     1
  9
$MAXACTVP
 70
    64
  9
$PINSBASE
 10
0.0
 20
0.0
 30
0.0
  9
$PLIMCHECK
 70
     0
  9
$PEXTMIN
 10
0.0
 20
0.0
 30
0.0
  9
$PEXTMAX
 10
3500.000000000001
 20
4950.0
 30
0.0
  9
$PLIMMIN
 10
0.0
 20
0.0
  9
$PLIMMAX
 10
3500.000000000001
 20
4950.0
  9
$UNITMODE
 70
     0
  9
$VISRETAIN
 70
     1
  9
$PLINEGEN
 70
     0
  9
$PSLTSCALE
 70
     1
  9
$TREEDEPTH
 70
  3020
  9
$CMLSTYLE
  2
Standard
  9
$CMLJUST
 70
     0
  9
$CMLSCALE
 40
1.0
  9
$PROXYGRAPHICS
 70
     1
  9
$MEASUREMENT
 70
     1
  9
$CELWEIGHT
370
    -1
  9
$ENDCAPS
280
     0
  9
$JOINSTYLE
280
     0
  9
$LWDISPLAY
290
     0
  9
$INSUNITS
 70
     4
  9
$HYPERLINKBASE
  1

  9
$STYLESHEET
  1

  9
$XEDIT
290
     1
  9
$CEPSNTYPE
380
     0
  9
$PSTYLEMODE
290
     1
  9
$FINGERPRINTGUID
  2
{EE135520-1587-4522-A5CF-BC0DCF7EA64F}
  9
$VERSIONGUID
  2
{32AAF9A7-A681-472A-B7CF-4C65EF0ABA71}
  9
$EXTNAMES
290
     1
  9
$PSVPSCALE
 40
0.0
  9
$OLESTARTUP
290
     0
  0
ENDSEC
  0
SECTION
  2
CLASSES
  0
CLASS
  1
ACDBDICTIONARYWDFLT
  2
AcDbDictionaryWithDefault
  3
ObjectDBX Classes
 90
        0
280
     0
281
     0
  0
CLASS
  1
MATERIAL
  2
AcDbMaterial
  3
ObjectDBX Classes
 90
     1153
280
     0
281
     0
  0
CLASS
  1
VISUALSTYLE
  2
AcDbVisualStyle
  3
ObjectDBX Classes
 90
     4095
280
     0
281
     0
  0
CLASS
  1
SCALE
  2
AcDbScale
  3
ObjectDBX Classes
 90
     1153
280
     0
281
     0
  0
CLASS
  1
TABLESTYLE
  2
AcDbTableStyle
  3
ObjectDBX Classes
 90
     4095
280
     0
281
     0
  0
CLASS
  1
MLEADERSTYLE
  2
AcDbMLeaderStyle
  3
ACDB_MLEADERSTYLE_CLASS
 90
     4095
280
     0
281
     0
  0
CLASS
  1
DICTIONARYVAR
  2
AcDbDictionaryVar
  3
ObjectDBX Classes
 90
        0
280
     0
281
     0
  0
CLASS
  1
CELLSTYLEMAP
  2
AcDbCellStyleMap
  3
ObjectDBX Classes
 90
     1152
280
     0
281
     0
  0
CLASS
  1
ACDBPLACEHOLDER
  2
AcDbPlaceHolder
  3
ObjectDBX Classes
 90
        0
280
     0
281
     0
  0
CLASS
  1
LAYOUT
  2
AcDbLayout
  3
ObjectDBX Classes
 90
        0
280
     0
281
     0
  0
ENDSEC
  0
SECTION
  2
TABLES
  0
TABLE
  2
VPORT
  5
8
330
0
100
AcDbSymbolTable
 70
     1
  0
VPORT
  5
57
330
8
100
AcDbSymbolTableRecord
100
AcDbViewportTableRecord
  2
*Active
 70
     0
 10
0.0
 20
0.0
 11
1.0
 21
1.0
 12
1750.0
 22
2475.0
 13
0.0
 23
0.0
 14
1.0
 24
1.0
 15
0.0
 25
0.0
 16
0.0
 26
0.0
 36
1.0
 17
0.0
 27
0.0
 37
0.0
 40
4950.0
 41
0.7070707070707072
 42
50.0
 43
0.0
 44
0.0
 50
0.0
 51
0.0
 71
     0
 72
   100
 73
     1
 74
     1
 75
     0
 76
     0
 77
     0
 78
     0
281
     0
 65
     1
110
0.0
120
0.0
130
0.0
111
1.0
121
0.0
131
0.0
112
0.0
122
1.0
132
0.0
 79
     0
146
0.0
  0
ENDTAB
  0
TABLE
  2
LTYPE
  5
5
330
0
100
AcDbSymbolTable
 70
     1
  0
LTYPE
  5
5B
330
5
100
AcDbSymbolTableRecord
100
AcDbLinetypeTableRecord
  2
ByBlock
 70
     0
  3

 72
    65
 73
     0
 40
0.0
  0
LTYPE
  5
5C
330
5
100
AcDbSymbolTableRecord
100
AcDbLinetypeTableRecord
  2
ByLayer
 70
     0
  3

 72
    65
 73
     0
 40
0.0
  0
LTYPE
  5
5D
330
5
100
AcDbSymbolTableRecord
100
AcDbLinetypeTableRecord
  2
Continuous
 70
     0
  3
Solid line
 72
    65
 73
     0
 40
0.0
  0
ENDTAB
  0
TABLE
  2
LAYER
  5
2
330
0
100
AcDbSymbolTable
 70
    29
  0
LAYER
  5
54
330
2
100
AcDbSymbolTableRecord
100
AcDbLayerTableRecord
  2
0
 70
     0
 62
     7
  6
Continuous
370
    -3
390
F
  0
LAYER
  5
75
330
2
100
AcDbSymbolTableRecord
100
AcDbLayerTableRecord
  2
Geometria szkicu (ISO)
 70
     0
 62
     7
  6
Continuous
370
    25
390
F
  0
LAYER
  5
76
330
2
100
AcDbSymbolTableRecord
100
AcDbLayerTableRecord
  2
Kreskowanie (ISO)
 70
     0
 62
     7
  6
Continuous
370
    18
390
F
  0
LAYER
  5
7E
330
2
100
AcDbSymbolTableRecord
100
AcDbLayerTableRecord
  2
Obramowanie (ISO)
 70
     0
 62
     7
  6
Continuous
370
    70
390
F
  0
LAYER
  5
85
330
2
100
AcDbSymbolTableRecord
100
AcDbLayerTableRecord
  2
Symbol (ISO)
 70
     0
 62
     7
  6
Continuous
370
    25
390
F
  0
LAYER
  5
8B
330
2
100
AcDbSymbolTableRecord
100
AcDbLayerTableRecord
  2
Widoczne (ISO)
 70
     0
 62
     7
  6
Continuous
370
    18
390
F
  0
LAYER
  5
8D
330
2
100
AcDbSymbolTableRecord
100
AcDbLayerTableRecord
  2
Wymiar (ISO)
 70
     0
 62
     7
  6
Continuous
370
    25
390
F
  0
ENDTAB
  0
TABLE
  2
STYLE
  5
3
330
0
100
AcDbSymbolTable
 70
     6
  0
STYLE
  5
55
330
3
100
AcDbSymbolTableRecord
100
AcDbTextStyleTableRecord
  2
Standard
 70
     0
 40
0.0
 41
1.0
 50
0.0
 71
     0
 42
0.2
  3
tahoma.ttf
  4

1001
ACAD
1000
Tahoma
1071
      256
  0
STYLE
  5
5A
330
3
100
AcDbSymbolTableRecord
100
AcDbTextStyleTableRecord
  2
Annotative
 70
     0
 40
0.0
 41
1.0
 50
0.0
 71
     0
 42
0.2
  3
txt
  4

1001
AcadAnnotative
1000
AnnotativeData
1002
{
1070
     1
1070
     1
1002
}
  0
STYLE
  5
90
330
3
100
AcDbSymbolTableRecord
100
AcDbTextStyleTableRecord
  2
Tekst etykiety (ISO)
 70
     0
 40
0.0
 41
1.0
 50
0.0
 71
     0
 42
0.2
  3
tahoma.ttf
  4

1001
ACAD
1000
Tahoma
1071
      256
  0
STYLE
  5
91
330
3
100
AcDbSymbolTableRecord
100
AcDbTextStyleTableRecord
  2
Tekst notatki (ISO)
 70
     0
 40
0.0
 41
1.0
 50
0.0
 71
     0
 42
0.2
  3
tahoma.ttf
  4

1001
ACAD
1000
Tahoma
1071
      256
  0
STYLE
  5
92
330
3
100
AcDbSymbolTableRecord
100
AcDbTextStyleTableRecord
  2
wibo Tekst etykiety (ISO)
 70
     0
 40
0.0
 41
1.0
 50
0.0
 71
     0
 42
0.2
  3
tahoma.ttf
  4

1001
ACAD
1000
Tahoma
1071
      256
  0
STYLE
  5
93
330
3
100
AcDbSymbolTableRecord
100
AcDbTextStyleTableRecord
  2
wibo Tekst notatki (ISO)
 70
     0
 40
0.0
 41
1.0
 50
0.0
 71
     0
 42
0.2
  3
tahoma.ttf
  4

1001
ACAD
1000
Tahoma
1071
      256
  0
ENDTAB
  0
TABLE
  2
VIEW
  5
6
330
0
100
AcDbSymbolTable
 70
     0
  0
ENDTAB
  0
TABLE
  2
UCS
  5
7
330
0
100
AcDbSymbolTable
 70
     0
  0
ENDTAB
  0
TABLE
  2
APPID
  5
9
330
0
100
AcDbSymbolTable
 70
     3
  0
APPID
  5
56
330
9
100
AcDbSymbolTableRecord
100
AcDbRegAppTableRecord
  2
ACAD
 70
     0
  0
APPID
  5
5E
330
9
100
AcDbSymbolTableRecord
100
AcDbRegAppTableRecord
  2
AcadAnnotative
 70
     0
  0
APPID
  5
5DA
330
9
100
AcDbSymbolTableRecord
100
AcDbRegAppTableRecord
  2
ACAD_MLEADERVER
 70
     0
  0
ENDTAB
  0
TABLE
  2
DIMSTYLE
  5
A
330
0
100
AcDbSymbolTable
 70
    28
100
AcDbDimStyleTable
 71
     0
  0
DIMSTYLE
105
58
330
A
100
AcDbSymbolTableRecord
100
AcDbDimStyleTableRecord
  2
Standard
 70
     0
340
55
  0
DIMSTYLE
105
59
330
A
100
AcDbSymbolTableRecord
100
AcDbDimStyleTableRecord
  2
Annotative
 70
     0
340
55
1001
AcadAnnotative
1000
AnnotativeData
1002
{
1070
     1
1070
     1
1002
}
  0
DIMSTYLE
105
94
330
A
100
AcDbSymbolTableRecord
100
AcDbDimStyleTableRecord
  2
Domyślne - Metoda 1b (ISO)
 70
     0
 40
16.66666666666667
 41
2.5
 42
0.0
 43
5.999999999999999
 44
3.174999999999999
 45
0.00000001
 46
10.0
 73
     0
 77
     1
 78
     8
 79
     2
140
3.5
143
0.03937
147
0.762
171
     3
172
     1
176
   256
177
   256
178
   256
179
     2
271
     2
272
     2
274
     3
278
    44
284
     8
286
     8
340
91
371
    -1
372
    -1
  0
DIMSTYLE
105
95
330
A
100
AcDbSymbolTableRecord
100
AcDbDimStyleTableRecord
  2
Domyślne - Metoda 1b (ISO)$7
 70
     0
 40
16.66666666666667
 41
2.5
 42
0.0
 43
5.999999999999999
 44
3.174999999999999
 45
0.00000001
 46
10.0
 73
     0
 77
     1
 78
     8
 79
     2
140
3.5
143
0.03937
147
0.762
171
     3
172
     1
176
   256
177
   256
178
   256
179
     2
271
     2
272
     2
274
     3
278
    44
284
     8
286
     8
340
91
371
    -1
372
    -1
  0
DIMSTYLE
105
96
330
A
100
AcDbSymbolTableRecord
100
AcDbDimStyleTableRecord
  2
Domyślne - Metoda 2a (ISO)
 70
     0
 40
16.66666666666667
 41
2.5
 42
0.0
 43
5.999999999999999
 44
3.174999999999999
 45
0.00000001
 46
10.0
 77
     1
 78
     8
 79
     2
140
3.5
143
0.03937
147
0.762
171
     3
172
     1
176
   256
177
   256
178
   256
179
     2
271
     2
272
     2
274
     3
278
    44
284
     8
286
     8
340
91
371
    -1
372
    -1
  0
DIMSTYLE
105
97
330
A
100
AcDbSymbolTableRecord
100
AcDbDimStyleTableRecord
  2
Domyślne - Metoda 2a (ISO)$7
 70
     0
 40
16.66666666666667
 41
2.5
 42
0.0
 43
5.999999999999999
 44
3.174999999999999
 45
0.00000001
 46
10.0
 77
     1
 78
     8
 79
     2
140
3.5
143
0.03937
147
0.762
171
     3
172
     1
176
   256
177
   256
178
   256
179
     2
271
     2
272
     2
274
     3
278
    44
284
     8
286
     8
340
91
371
    -1
372
    -1
  0
DIMSTYLE
105
98
330
A
100
AcDbSymbolTableRecord
100
AcDbDimStyleTableRecord
  2
Domyślne - Metoda 2b (ISO)
 70
     0
 40
16.66666666666667
 41
2.5
 42
0.0
 43
5.999999999999999
 44
3.174999999999999
 45
0.00000001
 46
10.0
 77
     1
 78
     8
 79
     2
140
3.5
143
0.03937
147
0.762
171
     3
172
     1
176
   256
177
   256
178
   256
179
     2
271
     2
272
     2
274
     3
278
    44
284
     8
286
     8
340
91
371
    -1
372
    -1
  0
DIMSTYLE
105
99
330
A
100
AcDbSymbolTableRecord
100
AcDbDimStyleTableRecord
  2
Domyślne - Metoda 2b (ISO)$7
 70
     0
 40
16.66666666666667
 41
2.5
 42
0.0
 43
5.999999999999999
 44
3.174999999999999
 45
0.00000001
 46
10.0
 77
     1
 78
     8
 79
     2
140
3.5
143
0.03937
147
0.762
171
     3
172
     1
176
   256
177
   256
178
   256
179
     2
271
     2
272
     2
274
     3
278
    44
284
     8
286
     8
340
91
371
    -1
372
    -1
  0
DIMSTYLE
105
9A
330
A
100
AcDbSymbolTableRecord
100
AcDbDimStyleTableRecord
  2
Domyślne - mm [cale] (ISO)
 70
     0
  4
 cal
 40
16.66666666666667
 41
2.5
 42
0.0
 43
5.999999999999999
 44
3.174999999999999
 45
0.00000001
 46
10.0
 73
     0
 74
     0
 77
     1
 78
     8
 79
     2
140
3.5
143
0.03937
147
0.762
170
     1
171
     3
172
     1
176
   256
177
   256
178
   256
179
     3
271
     3
272
     2
274
     3
275
     1
278
    44
284
     8
285
     8
286
     8
340
91
371
    -1
372
    -1
  0
DIMSTYLE
105
9B
330
A
100
AcDbSymbolTableRecord
100
AcDbDimStyleTableRecord
  2
Domyślne - mm [cale] (ISO)$7
 70
     0
  4
 cal
 40
16.66666666666667
 41
2.5
 42
0.0
 43
5.999999999999999
 44
3.174999999999999
 45
0.00000001
 46
10.0
 73
     0
 74
     0
 77
     1
 78
     8
 79
     2
140
3.5
143
0.03937
147
0.762
170
     1
171
     3
172
     1
176
   256
177
   256
178
   256
179
     3
271
     3
272
     2
274
     3
275
     1
278
    44
284
     8
285
     8
286
     8
340
91
371
    -1
372
    -1
  0
DIMSTYLE
105
9C
330
A
100
AcDbSymbolTableRecord
100
AcDbDimStyleTableRecord
  2
Domyślne (ISO)
 70
     0
 40
16.66666666666667
 41
2.5
 42
0.0
 43
5.999999999999999
 44
3.174999999999999
 45
0.00000001
 46
10.0
 73
     0
 74
     0
 77
     1
140
3.5
143
0.03937
146
1.001485705375671
147
0.762
171
     3
172
     1
176
   256
177
   256
178
   256
179
     2
271
     2
272
     2
274
     3
278
    44
340
91
371
    -1
372
    -1
  0
DIMSTYLE
105
9D
330
A
100
AcDbSymbolTableRecord
100
AcDbDimStyleTableRecord
  2
Domyślne (ISO)$7
 70
     0
 40
16.66666666666667
 41
2.5
 42
0.0
 43
5.999999999999999
 44
3.174999999999999
 45
0.00000001
 46
10.0
 73
     0
 74
     0
 77
     1
140
3.5
143
0.03937
146
1.001485705375671
147
0.762
171
     3
172
     1
176
   256
177
   256
178
   256
179
     2
271
     2
272
     2
274
     3
278
    44
340
91
371
    -1
372
    -1
  0
DIMSTYLE
105
AC
330
A
100
AcDbSymbolTableRecord
100
AcDbDimStyleTableRecord
  2
Obiekt mieszany (ISO)
 70
     0
 40
16.66666666666667
 41
2.5
 42
0.0
 43
5.999999999999999
 44
3.174999999999999
 45
0.00000001
 46
10.0
 73
     0
 74
     0
 77
     1
140
5.25
143
0.03937
146
0.6676571965217591
147
0.762
171
     3
172
     1
176
   256
177
   256
178
   256
179
     2
271
     2
272
     2
274
     3
278
    44
340
90
341
9E
371
    -1
372
    -1
  0
DIMSTYLE
105
AD
330
A
100
AcDbSymbolTableRecord
100
AcDbDimStyleTableRecord
  2
Obiekt mieszany (ISO)$7
 70
     0
 40
16.66666666666667
 41
5.0
 42
0.0
 43
5.999999999999999
 44
3.174999999999999
 45
0.00000001
 46
10.0
 73
     0
 74
     0
 77
     1
140
5.25
143
0.03937
146
0.6676571965217591
147
0.762
171
     3
172
     1
176
   256
177
   256
178
   256
179
     2
271
     2
272
     2
274
     3
278
    44
340
90
341
9E
371
    25
372
    -1
  0
DIMSTYLE
105
AE
330
A
100
AcDbSymbolTableRecord
100
AcDbDimStyleTableRecord
  2
wibo Domyślne - Metoda 1b (ISO)
 70
     0
 40
16.66666666666667
 41
2.5
 42
0.0
 43
5.999999999999999
 44
3.174999999999999
 45
0.00000001
 46
10.0
 73
     0
 77
     1
 78
     8
 79
     2
140
2.0
143
0.03937
147
0.762
171
     3
172
     1
176
   256
177
   256
178
   256
179
     2
271
     2
272
     2
274
     3
278
    44
284
     8
286
     8
340
93
371
    -1
372
    -1
  0
DIMSTYLE
105
AF
330
A
100
AcDbSymbolTableRecord
100
AcDbDimStyleTableRecord
  2
wibo Domyślne - Metoda 1b (ISO)$7
 70
     0
 40
16.66666666666667
 41
2.5
 42
0.0
 43
5.999999999999999
 44
3.174999999999999
 45
0.00000001
 46
10.0
 73
     0
 77
     1
 78
     8
 79
     2
140
2.0
143
0.03937
147
0.762
171
     3
172
     1
176
   256
177
   256
178
   256
179
     2
271
     2
272
     2
274
     3
278
    44
284
     8
286
     8
340
93
371
    -1
372
    -1
  0
DIMSTYLE
105
B0
330
A
100
AcDbSymbolTableRecord
100
AcDbDimStyleTableRecord
  2
wibo Domyślne - Metoda 2a (ISO)
 70
     0
 40
16.66666666666667
 41
2.5
 42
0.0
 43
5.999999999999999
 44
3.174999999999999
 45
0.00000001
 46
10.0
 77
     1
 78
     8
 79
     2
140
2.0
143
0.03937
146
1.75
147
0.762
171
     3
172
     1
176
   256
177
   256
178
   256
179
     2
271
     2
272
     2
274
     3
278
    44
284
     8
286
     8
340
93
371
    -1
372
    -1
  0
DIMSTYLE
105
B1
330
A
100
AcDbSymbolTableRecord
100
AcDbDimStyleTableRecord
  2
wibo Domyślne - Metoda 2a (ISO)$7
 70
     0
 40
16.66666666666667
 41
2.5
 42
0.0
 43
5.999999999999999
 44
3.174999999999999
 45
0.00000001
 46
10.0
 77
     1
 78
     8
 79
     2
140
2.0
143
0.03937
146
1.75
147
0.762
171
     3
172
     1
176
   256
177
   256
178
   256
179
     2
271
     2
272
     2
274
     3
278
    44
284
     8
286
     8
340
93
371
    -1
372
    -1
  0
DIMSTYLE
105
B2
330
A
100
AcDbSymbolTableRecord
100
AcDbDimStyleTableRecord
  2
wibo Domyślne - Metoda 2b (ISO)
 70
     0
 40
16.66666666666667
 41
2.5
 42
0.0
 43
5.999999999999999
 44
3.174999999999999
 45
0.00000001
 46
10.0
 77
     1
 78
     8
 79
     2
140
2.0
143
0.03937
146
1.75
147
0.762
171
     3
172
     1
176
   256
177
   256
178
   256
179
     2
271
     2
272
     2
274
     3
278
    44
284
     8
286
     8
340
93
371
    -1
372
    -1
  0
DIMSTYLE
105
B3
330
A
100
AcDbSymbolTableRecord
100
AcDbDimStyleTableRecord
  2
wibo Domyślne - Metoda 2b (ISO)$7
 70
     0
 40
16.66666666666667
 41
2.5
 42
0.0
 43
5.999999999999999
 44
3.174999999999999
 45
0.00000001
 46
10.0
 77
     1
 78
     8
 79
     2
140
2.0
143
0.03937
146
1.75
147
0.762
171
     3
172
     1
176
   256
177
   256
178
   256
179
     2
271
     2
272
     2
274
     3
278
    44
284
     8
286
     8
340
93
371
    -1
372
    -1
  0
DIMSTYLE
105
B4
330
A
100
AcDbSymbolTableRecord
100
AcDbDimStyleTableRecord
  2
wibo Domyślne - mm [cale] (ISO)
 70
     0
  4
 cal
 40
16.66666666666667
 41
2.5
 42
0.0
 43
5.999999999999999
 44
3.174999999999999
 45
0.00000001
 46
10.0
 73
     0
 74
     0
 77
     1
 78
     8
 79
     2
140
2.0
143
0.03937
146
1.75
147
0.762
170
     1
171
     3
172
     1
176
   256
177
   256
178
   256
179
     3
271
     3
272
     2
274
     3
275
     1
278
    44
284
     8
285
     8
286
     8
340
93
371
    -1
372
    -1
  0
DIMSTYLE
105
B5
330
A
100
AcDbSymbolTableRecord
100
AcDbDimStyleTableRecord
  2
wibo Domyślne - mm [cale] (ISO)$7
 70
     0
  4
 cal
 40
16.66666666666667
 41
2.5
 42
0.0
 43
5.999999999999999
 44
3.174999999999999
 45
0.00000001
 46
10.0
 73
     0
 74
     0
 77
     1
 78
     8
 79
     2
140
2.0
143
0.03937
146
1.75
147
0.762
170
     1
171
     3
172
     1
176
   256
177
   256
178
   256
179
     3
271
     3
272
     2
274
     3
275
     1
278
    44
284
     8
285
     8
286
     8
340
93
371
    -1
372
    -1
  0
DIMSTYLE
105
B6
330
A
100
AcDbSymbolTableRecord
100
AcDbDimStyleTableRecord
  2
wibo Domyślne ISO
 70
     0
 40
16.66666666666667
 41
2.5
 42
0.0
 43
5.999999999999999
 44
3.174999999999999
 45
0.00000001
 46
10.0
 73
     0
 74
     0
 77
     1
140
2.0
143
0.03937
147
0.762
171
     3
172
     1
176
   256
177
   256
178
   256
179
     1
271
     1
272
     2
274
     3
278
    44
340
93
371
    -1
372
    -1
  0
DIMSTYLE
105
B7
330
A
100
AcDbSymbolTableRecord
100
AcDbDimStyleTableRecord
  2
wibo Domyślne ISO$7
 70
     0
 40
16.66666666666667
 41
2.5
 42
0.0
 43
5.999999999999999
 44
3.174999999999999
 45
0.00000001
 46
10.0
 73
     0
 74
     0
 77
     1
140
2.0
143
0.03937
147
0.762
171
     3
172
     1
176
   256
177
   256
178
   256
179
     1
271
     1
272
     2
274
     3
278
    44
340
93
371
    -1
372
    -1
  0
DIMSTYLE
105
B8
330
A
100
AcDbSymbolTableRecord
100
AcDbDimStyleTableRecord
  2
wibo Obiekt mieszany (ISO)
 70
     0
 40
16.66666666666667
 41
2.5
 42
0.0
 43
5.999999999999999
 44
3.174999999999999
 45
0.00000001
 46
10.0
 73
     0
 74
     0
 77
     1
140
3.5
143
0.03937
146
1.001485705375671
147
0.762
171
     3
172
     1
176
   256
177
   256
178
   256
179
     2
271
     2
272
     2
274
     3
278
    44
340
92
341
9E
371
    -1
372
    -1
  0
DIMSTYLE
105
B9
330
A
100
AcDbSymbolTableRecord
100
AcDbDimStyleTableRecord
  2
wibo Obiekt mieszany (ISO)$7
 70
     0
 40
16.66666666666667
 41
5.0
 42
0.0
 43
5.999999999999999
 44
3.174999999999999
 45
0.00000001
 46
10.0
 73
     0
 74
     0
 77
     1
140
3.5
143
0.03937
146
1.001485705375671
147
0.762
171
     3
172
     1
176
   256
177
   256
178
   256
179
     2
271
     2
272
     2
274
     3
278
    44
340
92
341
9E
371
    25
372
    -1
  0
DIMSTYLE
105
BA
330
A
100
AcDbSymbolTableRecord
100
AcDbDimStyleTableRecord
  2
Dodatkowy (ISO)
 70
     0
 40
16.66666666666667
 41
2.5
340
55
342
BB
  0
DIMSTYLE
105
CC
330
A
100
AcDbSymbolTableRecord
100
AcDbDimStyleTableRecord
  2
Odniesienie (ISO)
 70
     0
 40
16.66666666666667
 41
2.5
340
55
342
BB
  0
ENDTAB
  0
TABLE
  2
BLOCK_RECORD
  5
1
330
0
100
AcDbSymbolTable
 70
     6
  0
BLOCK_RECORD
  5
6C
330
1
100
AcDbSymbolTableRecord
100
AcDbBlockTableRecord
  2
*Model_Space
340
6F
  0
BLOCK_RECORD
  5
68
330
1
100
AcDbSymbolTableRecord
100
AcDbBlockTableRecord
  2
*Paper_Space
340
6B
  0
BLOCK_RECORD
  5
70
330
1
100
AcDbSymbolTableRecord
100
AcDbBlockTableRecord
  2
*Paper_Space0
340
73
  0
BLOCK_RECORD
  5
9E
330
1
100
AcDbSymbolTableRecord
100
AcDbBlockTableRecord
  2
Filled-1
340
0
  0
BLOCK_RECORD
  5
BB
330
1
100
AcDbSymbolTableRecord
100
AcDbBlockTableRecord
  2
_Closed
340
0
  0
BLOCK_RECORD
  5
C2
330
1
100
AcDbSymbolTableRecord
100
AcDbBlockTableRecord
  2
DatumFilled45
340
0
  0
BLOCK_RECORD
  5
CD
330
1
100
AcDbSymbolTableRecord
100
AcDbBlockTableRecord
  2
Ilość kompletów
340
0
  0
BLOCK_RECORD
  5
DB
330
1
100
AcDbSymbolTableRecord
100
AcDbBlockTableRecord
  2
Skala
340
0
  0
ENDTAB
  0
ENDSEC
  0
SECTION
  2
BLOCKS
  0
BLOCK
  5
6D
330
6C
100
AcDbEntity
  8
0
100
AcDbBlockBegin
  2
*Model_Space
 70
     0
 10
0.0
 20
0.0
 30
0.0
  3
*Model_Space
  1

  0
ENDBLK
  5
6E
330
6C
100
AcDbEntity
  8
0
100
AcDbBlockEnd
  0
BLOCK
  5
69
330
68
100
AcDbEntity
 67
     1
  8
0
100
AcDbBlockBegin
  2
*Paper_Space
 70
     0
 10
0.0
 20
0.0
 30
0.0
  3
*Paper_Space
  1

  0
ENDBLK
  5
6A
330
68
100
AcDbEntity
 67
     1
  8
0
100
AcDbBlockEnd
  0
BLOCK
  5
71
330
70
100
AcDbEntity
 67
     1
  8
0
100
AcDbBlockBegin
  2
*Paper_Space0
 70
     0
 10
0.0
 20
0.0
 30
0.0
  3
*Paper_Space0
  1

  0
ENDBLK
  5
72
330
70
100
AcDbEntity
 67
     1
  8
0
100
AcDbBlockEnd
  0
BLOCK
  5
9F
330
9E
100
AcDbEntity
  8
0
100
AcDbBlockBegin
  2
Filled-1
 70
     0
 10
0.0
 20
0.0
 30
0.0
  3
Filled-1
  1

  0
LINE
  5
A1
330
9E
100
AcDbEntity
  8
0
 62
     0
100
AcDbLine
 10
-1.0
 20
0.0
 30
0.0
 11
0.0
 21
0.0
 31
0.0
  0
POLYLINE
  5
A2
330
9E
100
AcDbEntity
  8
0
 62
     0
100
AcDb2dPolyline
 66
     1
 10
0.0
 20
0.0
 30
0.0
 70
   128
  0
VERTEX
  5
A3
330
A2
100
AcDbEntity
  8
0
 62
     0
100
AcDbVertex
100
AcDb2dVertex
 10
-1.0
 20
-0.1
 30
0.0
  0
VERTEX
  5
A4
330
A2
100
AcDbEntity
  8
0
 62
     0
100
AcDbVertex
100
AcDb2dVertex
 10
0.0
 20
0.0
 30
0.0
  0
VERTEX
  5
A6
330
A2
100
AcDbEntity
  8
0
 62
     0
100
AcDbVertex
100
AcDb2dVertex
 10
-1.0
 20
0.1
 30
0.0
  0
VERTEX
  5
A7
330
A2
100
AcDbEntity
  8
0
 62
     0
100
AcDbVertex
100
AcDb2dVertex
 10
-1.0
 20
-0.1
 30
0.0
  0
SEQEND
  5
A5
330
A2
100
AcDbEntity
  8
0
 62
     0
  0
SOLID
  5
A8
330
9E
100
AcDbEntity
  8
0
 62
     0
100
AcDbTrace
 10
-1.0
 20
-0.1
 30
0.0
 11
0.0
 21
0.0
 31
0.0
 12
-1.0
 22
0.1
 32
0.0
 13
-1.0
 23
-0.1
 33
0.0
  0
LINE
  5
A9
330
9E
100
AcDbEntity
  8
0
 62
     0
100
AcDbLine
 10
-1.0
 20
-0.1
 30
0.0
 11
0.0
 21
0.0
 31
0.0
  0
LINE
  5
AA
330
9E
100
AcDbEntity
  8
0
 62
     0
100
AcDbLine
 10
0.0
 20
0.0
 30
0.0
 11
-1.0
 21
0.1
 31
0.0
  0
LINE
  5
AB
330
9E
100
AcDbEntity
  8
0
 62
     0
100
AcDbLine
 10
-1.0
 20
0.1
 30
0.0
 11
-1.0
 21
-0.1
 31
0.0
  0
ENDBLK
  5
A0
330
9E
100
AcDbEntity
  8
0
100
AcDbBlockEnd
  0
BLOCK
  5
C0
330
BB
100
AcDbEntity
  8
0
100
AcDbBlockBegin
  2
_Closed
 70
     0
 10
0.0
 20
0.0
 30
0.0
  3
_Closed
  1

  0
LINE
  5
BC
330
BB
100
AcDbEntity
  8
0
  6
ByBlock
 62
     0
370
    -2
100
AcDbLine
 10
-1.0
 20
0.1666666666666666
 30
0.0
 11
0.0
 21
0.0
 31
0.0
  0
LINE
  5
BD
330
BB
100
AcDbEntity
  8
0
  6
ByBlock
 62
     0
370
    -2
100
AcDbLine
 10
0.0
 20
0.0
 30
0.0
 11
-1.0
 21
-0.1666666666666666
 31
0.0
  0
LINE
  5
BE
330
BB
100
AcDbEntity
  8
0
  6
ByBlock
 62
     0
370
    -2
100
AcDbLine
 10
-1.0
 20
0.1666666666666666
 30
0.0
 11
-1.0
 21
-0.1666666666666666
 31
0.0
  0
LINE
  5
BF
330
BB
100
AcDbEntity
  8
0
  6
ByBlock
 62
     0
370
    -2
100
AcDbLine
 10
0.0
 20
0.0
 30
0.0
 11
-1.0
 21
0.0
 31
0.0
  0
ENDBLK
  5
C1
330
BB
100
AcDbEntity
  8
0
100
AcDbBlockEnd
  0
BLOCK
  5
C3
330
C2
100
AcDbEntity
  8
0
100
AcDbBlockBegin
  2
DatumFilled45
 70
     0
 10
0.0
 20
0.0
 30
0.0
  3
DatumFilled45
  1

  0
POLYLINE
  5
C5
330
C2
100
AcDbEntity
  8
0
 62
     0
100
AcDb2dPolyline
 66
     1
 10
0.0
 20
0.0
 30
0.0
 70
   128
  0
VERTEX
  5
C6
330
C5
100
AcDbEntity
  8
0
 62
     0
100
AcDbVertex
100
AcDb2dVertex
 10
0.0
 20
1.0
 30
0.0
  0
VERTEX
  5
C7
330
C5
100
AcDbEntity
  8
0
 62
     0
100
AcDbVertex
100
AcDb2dVertex
 10
0.0
 20
-1.0
 30
0.0
  0
VERTEX
  5
C9
330
C5
100
AcDbEntity
  8
0
 62
     0
100
AcDbVertex
100
AcDb2dVertex
 10
-1.0
 20
0.0
 30
0.0
  0
VERTEX
  5
CA
330
C5
100
AcDbEntity
  8
0
 62
     0
100
AcDbVertex
100
AcDb2dVertex
 10
0.0
 20
1.0
 30
0.0
  0
SEQEND
  5
C8
330
C5
100
AcDbEntity
  8
0
 62
     0
  0
SOLID
  5
CB
330
C2
100
AcDbEntity
  8
0
 62
     0
100
AcDbTrace
 10
0.0
 20
1.0
 30
0.0
 11
0.0
 21
-1.0
 31
0.0
 12
-1.0
 22
0.0
 32
0.0
 13
0.0
 23
1.0
 33
0.0
  0
ENDBLK
  5
C4
330
C2
100
AcDbEntity
  8
0
100
AcDbBlockEnd
  0
BLOCK
  5
CE
330
CD
100
AcDbEntity
  8
0
100
AcDbBlockBegin
  2
Ilość kompletów
 70
     0
 10
0.0
 20
0.0
 30
0.0
  3
Ilość kompletów
  1

  0
LINE
  5
D0
330
CD
100
AcDbEntity
  8
Geometria szkicu (ISO)
100
AcDbLine
 10
65.0
 20
-5.999999999999978
 30
0.0
 11
-65.0
 21
-6.000000000000014
 31
0.0
  0
LINE
  5
D1
330
CD
100
AcDbEntity
  8
Geometria szkicu (ISO)
100
AcDbLine
 10
-65.0
 20
-6.000000000000014
 30
0.0
 11
-65.0
 21
5.99999999999996
 31
0.0
  0
LINE
  5
D2
330
CD
100
AcDbEntity
  8
Geometria szkicu (ISO)
100
AcDbLine
 10
-65.0
 20
5.99999999999996
 30
0.0
 11
65.0
 21
6.000000000000014
 31
0.0
  0
LINE
  5
D3
330
CD
100
AcDbEntity
  8
Geometria szkicu (ISO)
100
AcDbLine
 10
65.0
 20
6.000000000000014
 30
0.0
 11
65.0
 21
-5.999999999999978
 31
0.0
  0
LINE
  5
D4
330
CD
100
AcDbEntity
  8
Geometria szkicu (ISO)
100
AcDbLine
 10
-65.0
 20
0.0
 30
0.0
 11
65.0
 21
0.0
 31
0.0
  0
LINE
  5
D5
330
CD
100
AcDbEntity
  8
Geometria szkicu (ISO)
100
AcDbLine
 10
-34.99999999999999
 20
5.999999999999978
 30
0.0
 11
-34.99999999999999
 21
-5.999999999999996
 31
0.0
  0
LINE
  5
D6
330
CD
100
AcDbEntity
  8
Geometria szkicu (ISO)
100
AcDbLine
 10
5.0
 20
5.999999999999996
 30
0.0
 11
5.0
 21
-5.999999999999978
 31
0.0
  0
MTEXT
  5
D7
330
CD
100
AcDbEntity
  8
Symbol (ISO)
100
AcDbMText
 10
5.0
 20
3.000000000000007
 30
0.0
 40
2.000000029802322
 41
60.0
 71
     4
 72
     1
  1
 Uwagi
  7
wibo Tekst notatki (ISO)
 73
     1
 44
1.0
1001
ACAD
1000
MTEXTBEGIN
1070
    73
1070
     1
1070
    44
1040
1.0
1070
    74
1070
     0
1000
MTEXTEND
  0
MTEXT
  5
D9
330
CD
100
AcDbEntity
  8
Symbol (ISO)
100
AcDbMText
 10
-34.99999999999999
 20
2.999999999999989
 30
0.0
 40
2.000000029802322
 41
39.99999999999995
 71
     4
 72
     1
  1
 Powierzchnia
  7
wibo Tekst notatki (ISO)
 73
     1
 44
1.0
1001
ACAD
1000
MTEXTBEGIN
1070
    73
1070
     1
1070
    44
1040
1.0
1070
    74
1070
     0
1000
MTEXTEND
  0
MTEXT
  5
DA
102
{ACAD_XDICTIONARY
360
5E1
102
}
330
CD
100
AcDbEntity
  8
Symbol (ISO)
100
AcDbMText
 10
-65.0
 20
2.999999999999953
 30
0.0
 40
2.000000029802322
 41
30.0
 71
     4
 72
     1
  1
 Ilo\U+015B\U+0107 komplet\U+00F3w
  7
wibo Tekst notatki (ISO)
 73
     1
 44
1.0
1001
ACAD
1000
MTEXTBEGIN
1070
    73
1070
     1
1070
    44
1040
1.0
1070
    74
1070
     0
1000
MTEXTEND
  0
ENDBLK
  5
CF
330
CD
100
AcDbEntity
  8
0
100
AcDbBlockEnd
  0
BLOCK
  5
DC
330
DB
100
AcDbEntity
  8
0
100
AcDbBlockBegin
  2
Skala
 70
     0
 10
0.0
 20
0.0
 30
0.0
  3
Skala
  1

  0
LINE
  5
DE
330
DB
100
AcDbEntity
  8
Wymiar (ISO)
100
AcDbLine
 10
0.0
 20
0.999999999999992
 30
0.0
 11
50.0
 21
1.0
 31
0.0
  0
LINE
  5
DF
330
DB
100
AcDbEntity
  8
Wymiar (ISO)
100
AcDbLine
 10
-50.0
 20
-1.0
 30
0.0
 11
-50.0
 21
0.0
 31
0.0
  0
LINE
  5
E0
330
DB
100
AcDbEntity
  8
Wymiar (ISO)
100
AcDbLine
 10
-50.0
 20
0.9999999999999786
 30
0.0
 11
-50.0
 21
0.0
 31
0.0
  0
LINE
  5
E1
330
DB
100
AcDbEntity
  8
Wymiar (ISO)
100
AcDbLine
 10
-50.0
 20
0.9999999999999786
 30
0.0
 11
-49.0
 21
0.9999999999999742
 31
0.0
  0
LINE
  5
E2
330
DB
100
AcDbEntity
  8
Wymiar (ISO)
100
AcDbLine
 10
-50.0
 20
0.0
 30
0.0
 11
50.0
 21
0.0
 31
0.0
  0
LINE
  5
E3
330
DB
100
AcDbEntity
  8
Wymiar (ISO)
100
AcDbLine
 10
0.0
 20
-0.999999999999992
 30
0.0
 11
-24.99999999999993
 21
-1.0
 31
0.0
  0
LINE
  5
E4
330
DB
100
AcDbEntity
  8
Wymiar (ISO)
100
AcDbLine
 10
-24.99999999999993
 20
0.9999999999999742
 30
0.0
 11
-39.99999999999993
 21
0.9999999999999786
 31
0.0
  0
LINE
  5
E5
330
DB
100
AcDbEntity
  8
Wymiar (ISO)
100
AcDbLine
 10
-39.99999999999993
 20
-1.0
 30
0.0
 11
-44.99999999999992
 21
-1.0
 31
0.0
  0
LINE
  5
E6
330
DB
100
AcDbEntity
  8
Wymiar (ISO)
100
AcDbLine
 10
-44.99999999999992
 20
-1.0
 30
0.0
 11
-39.99999999999993
 21
-1.0
 31
0.0
  0
MTEXT
  5
E7
330
DB
100
AcDbEntity
  8
Obramowanie (ISO)
100
AcDbMText
 10
51.0
 20
0.5000000000000027
 30
0.0
 40
1.000000014901161
 41
0.0
 71
     1
 72
     1
  1
\fTahoma|b0|i0;\H1.0000;1,47 A3
  7
wibo Tekst notatki (ISO)
 73
     1
 44
1.0
1001
ACAD
1000
MTEXTBEGIN
1070
    73
1070
     1
1070
    44
1040
1.0
1070
    74
1070
     0
1000
MTEXTEND
  0
ENDBLK
  5
DD
330
DB
100
AcDbEntity
  8
0
100
AcDbBlockEnd
  0
ENDSEC
  0
SECTION
  2
ENTITIES
  0
LINE
  5
E8
330
6C
100
AcDbEntity
  8
Widoczne (ISO)
100
AcDbLine
 10
2373.564796732841
 20
3708.605189958831
 30
0.0
 11
2704.398130066175
 21
3708.605189958831
 31
0.0
  0
LINE
  5
E9
330
6C
100
AcDbEntity
  8
Widoczne (ISO)
100
AcDbLine
 10
2704.398130066175
 20
3708.605189958831
 30
0.0
 11
2704.398130066175
 21
3958.605189958831
 31
0.0
  0
LINE
  5
EA
330
6C
100
AcDbEntity
  8
Widoczne (ISO)
100
AcDbLine
 10
2704.398130066175
 20
3958.605189958831
 30
0.0
 11
2373.564796732841
 21
3958.605189958831
 31
0.0
  0
LINE
  5
EB
330
6C
100
AcDbEntity
  8
Widoczne (ISO)
100
AcDbLine
 10
2373.564796732841
 20
3958.605189958831
 30
0.0
 11
2373.564796732841
 21
3708.605189958831
 31
0.0
  0
LINE
  5
EC
330
6C
100
AcDbEntity
  8
Widoczne (ISO)
100
AcDbLine
 10
704.3981300661733
 20
3708.605189958831
 30
0.0
 11
1035.231463399507
 21
3708.605189958831
 31
0.0
  0
LINE
  5
ED
330
6C
100
AcDbEntity
  8
Widoczne (ISO)
100
AcDbLine
 10
1035.231463399507
 20
3708.605189958831
 30
0.0
 11
1035.231463399507
 21
3958.605189958831
 31
0.0
  0
LINE
  5
EE
330
6C
100
AcDbEntity
  8
Widoczne (ISO)
100
AcDbLine
 10
1035.231463399507
 20
3958.605189958831
 30
0.0
 11
704.3981300661733
 21
3958.605189958831
 31
0.0
  0
LINE
  5
EF
330
6C
100
AcDbEntity
  8
Widoczne (ISO)
100
AcDbLine
 10
704.3981300661733
 20
3958.605189958831
 30
0.0
 11
704.3981300661733
 21
3708.605189958831
 31
0.0
  0
LINE
  5
F0
330
6C
100
AcDbEntity
  8
Widoczne (ISO)
100
AcDbLine
 10
2704.398130066173
 20
3708.605189958831
 30
0.0
 11
2704.398130066173
 21
3416.938523292165
 31
0.0
  0
LINE
  5
F1
330
6C
100
AcDbEntity
  8
Widoczne (ISO)
100
AcDbLine
 10
2704.398130066173
 20
4250.271856625498
 30
0.0
 11
2704.398130066173
 21
3958.605189958831
 31
0.0
  0
LINE
  5
F2
330
6C
100
AcDbEntity
  8
Widoczne (ISO)
100
AcDbLine
 10
2704.398130066173
 20
3416.938523292165
 30
0.0
 11
704.3981300661733
 21
3416.938523292165
 31
0.0
  0
LINE
  5
F3
330
6C
100
AcDbEntity
  8
Widoczne (ISO)
100
AcDbLine
 10
704.3981300661733
 20
3958.605189958831
 30
0.0
 11
704.3981300661733
 21
4250.271856625498
 31
0.0
  0
LINE
  5
F4
330
6C
100
AcDbEntity
  8
Widoczne (ISO)
100
AcDbLine
 10
704.3981300661733
 20
3416.938523292165
 30
0.0
 11
704.3981300661733
 21
3708.605189958831
 31
0.0
  0
LINE
  5
F5
330
6C
100
AcDbEntity
  8
Widoczne (ISO)
100
AcDbLine
 10
704.3981300661733
 20
4250.271856625498
 30
0.0
 11
2704.398130066173
 21
4250.271856625498
 31
0.0
  0
LINE
  5
F6
330
6C
100
AcDbEntity
  8
Widoczne (ISO)
100
AcDbLine
 10
1090.231463399508
 20
3774.038048291681
 30
0.0
 11
1090.231463399508
 21
3786.621381625014
 31
0.0
  0
LINE
  5
F7
330
6C
100
AcDbEntity
  8
Widoczne (ISO)
100
AcDbLine
 10
1090.231463399508
 20
3786.621381625014
 30
0.0
 11
1086.898130066174
 21
3786.621381625014
 31
0.0
  0
LINE
  5
F8
330
6C
100
AcDbEntity
  8
Widoczne (ISO)
100
AcDbLine
 10
1086.898130066174
 20
3786.621381625014
 30
0.0
 11
1086.898130066174
 21
3774.038048291681
 31
0.0
  0
ARC
  5
F9
330
6C
100
AcDbEntity
  8
Widoczne (ISO)
100
AcDbCircle
 10
1095.564796732841
 20
3774.038048291681
 30
0.0
 40
8.66666666666666
100
AcDbArc
 50
180.0
 51
270.0
  0
LINE
  5
FA
330
6C
100
AcDbEntity
  8
Widoczne (ISO)
100
AcDbLine
 10
1095.564796732841
 20
3765.371381625013
 30
0.0
 11
1121.564796732841
 21
3765.371381625013
 31
0.0
  0
ARC
  5
FB
330
6C
100
AcDbEntity
  8
Widoczne (ISO)
100
AcDbCircle
 10
1121.564796732841
 20
3760.038048291681
 30
0.0
 40
5.33333333333332
100
AcDbArc
 50
0.0
 51
90.0
  0
LINE
  5
FC
330
6C
100
AcDbEntity
  8
Widoczne (ISO)
100
AcDbLine
 10
1126.898130066174
 20
3760.038048291681
 30
0.0
 11
1126.898130066174
 21
3710.704714958347
 31
0.0
  0
ARC
  5
FD
330
6C
100
AcDbEntity
  8
Widoczne (ISO)
100
AcDbCircle
 10
1121.564796732841
 20
3710.704714958347
 30
0.0
 40
5.333333333333328
100
AcDbArc
 50
270.0
 51
0.0
  0
LINE
  5
FE
330
6C
100
AcDbEntity
  8
Widoczne (ISO)
100
AcDbLine
 10
1121.564796732841
 20
3705.371381625014
 30
0.0
 11
1011.298378821527
 21
3705.371381625014
 31
0.0
  0
ARC
  5
FF
330
6C
100
AcDbEntity
  8
Widoczne (ISO)
100
AcDbCircle
 10
1011.298378821527
 20
3710.704714958347
 30
0.0
 40
5.333333333333372
100
AcDbArc
 50
255.9637565320735
 51
270.0
  0
LINE
  5
100
330
6C
100
AcDbEntity
  8
Widoczne (ISO)
100
AcDbLine
 10
1010.004855488
 20
3705.53062162424
 30
0.0
 11
997.7065821496291
 21
3708.605189958831
 31
0.0
  0
LINE
  5
101
330
6C
100
AcDbEntity
  8
Widoczne (ISO)
100
AcDbLine
 10
997.7065821496291
 20
3708.605189958831
 30
0.0
 11
996.8981300661745
 21
3705.371381625014
 31
0.0
  0
LINE
  5
102
330
6C
100
AcDbEntity
  8
Widoczne (ISO)
100
AcDbLine
 10
996.8981300661745
 20
3705.371381625014
 30
0.0
 11
1009.196403404546
 21
3702.296813290421
 31
0.0
  0
ARC
  5
103
330
6C
100
AcDbEntity
  8
Widoczne (ISO)
100
AcDbCircle
 10
1011.298378821527
 20
3710.704714958347
 30
0.0
 40
8.666666666666561
100
AcDbArc
 50
255.9637565320735
 51
270.0
  0
LINE
  5
104
330
6C
100
AcDbEntity
  8
Widoczne (ISO)
100
AcDbLine
 10
1011.298378821527
 20
3702.038048291681
 30
0.0
 11
1121.564796732841
 21
3702.038048291681
 31
0.0
  0
ARC
  5
105
330
6C
100
AcDbEntity
  8
Widoczne (ISO)
100
AcDbCircle
 10
1121.564796732841
 20
3710.704714958347
 30
0.0
 40
8.666666666666664
100
AcDbArc
 50
270.0
 51
0.0
  0
LINE
  5
106
330
6C
100
AcDbEntity
  8
Widoczne (ISO)
100
AcDbLine
 10
1130.231463399508
 20
3710.704714958347
 30
0.0
 11
1130.231463399508
 21
3724.538048291681
 31
0.0
  0
LINE
  5
107
330
6C
100
AcDbEntity
  8
Widoczne (ISO)
100
AcDbLine
 10
1130.231463399508
 20
3746.204714958348
 30
0.0
 11
1130.231463399508
 21
3760.038048291681
 31
0.0
  0
ARC
  5
108
330
6C
100
AcDbEntity
  8
Widoczne (ISO)
100
AcDbCircle
 10
1121.564796732841
 20
3760.038048291681
 30
0.0
 40
8.666666666666664
100
AcDbArc
 50
0.0
 51
90.0
  0
LINE
  5
109
330
6C
100
AcDbEntity
  8
Widoczne (ISO)
100
AcDbLine
 10
1121.564796732841
 20
3768.704714958347
 30
0.0
 11
1095.564796732841
 21
3768.704714958347
 31
0.0
  0
ARC
  5
10A
330
6C
100
AcDbEntity
  8
Widoczne (ISO)
100
AcDbCircle
 10
1095.564796732841
 20
3774.038048291681
 30
0.0
 40
5.333333333333334
100
AcDbArc
 50
180.0
 51
270.0
  0
ARC
  5
10B
330
6C
100
AcDbEntity
  8
Widoczne (ISO)
100
AcDbCircle
 10
1081.564796732841
 20
3866.704714958347
 30
0.0
 40
5.333333333333334
100
AcDbArc
 50
0.0
 51
90.0
  0
LINE
  5
10C
330
6C
100
AcDbEntity
  8
Widoczne (ISO)
100
AcDbLine
 10
1086.898130066174
 20
3866.704714958347
 30
0.0
 11
1086.898130066174
 21
3822.454714958347
 31
0.0
  0
LINE
  5
10D
330
6C
100
AcDbEntity
  8
Widoczne (ISO)
100
AcDbLine
 10
1086.898130066174
 20
3822.454714958347
 30
0.0
 11
1090.231463399508
 21
3822.454714958347
 31
0.0
  0
LINE
  5
10E
330
6C
100
AcDbEntity
  8
Widoczne (ISO)
100
AcDbLine
 10
1090.231463399508
 20
3822.454714958347
 30
0.0
 11
1090.231463399508
 21
3866.704714958347
 31
0.0
  0
ARC
  5
10F
330
6C
100
AcDbEntity
  8
Widoczne (ISO)
100
AcDbCircle
 10
1081.564796732841
 20
3866.704714958347
 30
0.0
 40
8.666666666666625
100
AcDbArc
 50
0.0
 51
90.00000000000095
  0
LINE
  5
110
330
6C
100
AcDbEntity
  8
Widoczne (ISO)
100
AcDbLine
 10
1081.564796732841
 20
3875.371381625014
 30
0.0
 11
1060.231463399508
 21
3875.371381625014
 31
0.0
  0
LINE
  5
111
330
6C
100
AcDbEntity
  8
Widoczne (ISO)
100
AcDbLine
 10
1060.231463399508
 20
3875.371381625014
 30
0.0
 11
1060.231463399508
 21
3872.03804829168
 31
0.0
  0
LINE
  5
112
330
6C
100
AcDbEntity
  8
Widoczne (ISO)
100
AcDbLine
 10
1060.231463399508
 20
3872.03804829168
 30
0.0
 11
1081.564796732841
 21
3872.03804829168
 31
0.0
  0
LINE
  5
113
330
6C
100
AcDbEntity
  8
Widoczne (ISO)
100
AcDbLine
 10
1086.898130066174
 20
3786.621381625014
 30
0.0
 11
1086.898130066174
 21
3786.699069434507
 31
0.0
  0
LINE
  5
114
330
6C
100
AcDbEntity
  8
Widoczne (ISO)
100
AcDbLine
 10
1086.898130066174
 20
3802.871381625013
 30
0.0
 11
1086.898130066174
 21
3806.204714958346
 31
0.0
  0
LINE
  5
115
330
6C
100
AcDbEntity
  8
Widoczne (ISO)
100
AcDbLine
 10
1086.898130066174
 20
3822.377027148853
 30
0.0
 11
1086.898130066174
 21
3822.454714958347
 31
0.0
  0
CIRCLE
  5
116
330
6C
100
AcDbEntity
  8
Widoczne (ISO)
100
AcDbCircle
 10
1156.898130066174
 20
3842.03804829168
 30
0.0
 40
6.666666666666661
  0
ARC
  5
117
330
6C
100
AcDbEntity
  8
Widoczne (ISO)
100
AcDbCircle
 10
1183.56479673284
 20
3862.03804829168
 30
0.0
 40
4.999999999999998
100
AcDbArc
 50
0.0
 51
90.0
  0
LINE
  5
118
330
6C
100
AcDbEntity
  8
Widoczne (ISO)
100
AcDbLine
 10
1188.56479673284
 20
3773.704714958348
 30
0.0
 11
1188.56479673284
 21
3862.03804829168
 31
0.0
  0
LINE
  5
119
330
6C
100
AcDbEntity
  8
Widoczne (ISO)
100
AcDbLine
 10
1090.231463399507
 20
3867.038048291681
 30
0.0
 11
1090.231463399507
 21
3866.704714958347
 31
0.0
  0
LINE
  5
11A
330
6C
100
AcDbEntity
  8
Widoczne (ISO)
100
AcDbLine
 10
1164.637846678053
 20
3708.704714958347
 30
0.0
 11
1165.231463399397
 21
3708.704714958347
 31
0.0
  0
LINE
  5
11B
330
6C
100
AcDbEntity
  8
Widoczne (ISO)
100
AcDbLine
 10
1183.56479673284
 20
3867.038048291681
 30
0.0
 11
1090.231463399507
 21
3867.038048291681
 31
0.0
  0
ARC
  5
11C
330
6C
100
AcDbEntity
  8
Widoczne (ISO)
100
AcDbCircle
 10
1096.898130066174
 20
3775.371381625014
 30
0.0
 40
6.666666666666682
100
AcDbArc
 50
180.0
 51
270.0
  0
ARC
  5
11D
330
6C
100
AcDbEntity
  8
Widoczne (ISO)
100
AcDbCircle
 10
1123.56479673284
 20
3762.03804829168
 30
0.0
 40
6.666666666666689
100
AcDbArc
 50
0.0
 51
90.0
  0
ARC
  5
11E
330
6C
100
AcDbEntity
  8
Widoczne (ISO)
100
AcDbCircle
 10
2251.898130066155
 20
3842.03804829168
 30
0.0
 40
6.66666666666666
100
AcDbArc
 50
234.2729068940196
 51
120.2404441294473
  0
ARC
  5
11F
330
6C
100
AcDbEntity
  8
Widoczne (ISO)
100
AcDbCircle
 10
2225.231463399488
 20
3862.03804829168
 30
0.0
 40
4.999999999999999
100
AcDbArc
 50
90.0
 51
180.0
  0
LINE
  5
120
330
6C
100
AcDbEntity
  8
Widoczne (ISO)
100
AcDbLine
 10
2220.231463399489
 20
3772.038048291697
 30
0.0
 11
2220.231463399489
 21
3786.359478053955
 31
0.0
  0
LINE
  5
121
330
6C
100
AcDbEntity
  8
Widoczne (ISO)
100
AcDbLine
 10
2220.231463399489
 20
3799.954790578662
 30
0.0
 11
2220.231463399489
 21
3862.03804829168
 31
0.0
  0
LINE
  5
122
330
6C
100
AcDbEntity
  8
Widoczne (ISO)
100
AcDbLine
 10
2278.564796732822
 20
3708.704714958346
 30
0.0
 11
2273.564796732735
 21
3708.704714958346
 31
0.0
  0
LINE
  5
123
330
6C
100
AcDbEntity
  8
Widoczne (ISO)
100
AcDbLine
 10
2278.564796732822
 20
3762.03804829168
 30
0.0
 11
2278.564796732822
 21
3760.038048291681
 31
0.0
  0
LINE
  5
124
330
6C
100
AcDbEntity
  8
Widoczne (ISO)
100
AcDbLine
 10
2278.564796732822
 20
3710.704714958347
 30
0.0
 11
2278.564796732822
 21
3708.704714958346
 31
0.0
  0
LINE
  5
125
330
6C
100
AcDbEntity
  8
Widoczne (ISO)
100
AcDbLine
 10
2287.231463399507
 20
3768.704714958346
 30
0.0
 11
2285.231463399489
 21
3768.704714958346
 31
0.0
  0
LINE
  5
126
330
6C
100
AcDbEntity
  8
Widoczne (ISO)
100
AcDbLine
 10
2318.564796732822
 20
3867.03804829168
 30
0.0
 11
2318.564796732822
 21
3866.704714958347
 31
0.0
  0
LINE
  5
127
330
6C
100
AcDbEntity
  8
Widoczne (ISO)
100
AcDbLine
 10
2225.231463399488
 20
3867.03804829168
 30
0.0
 11
2235.115348184706
 21
3867.03804829168
 31
0.0
  0
LINE
  5
128
330
6C
100
AcDbEntity
  8
Widoczne (ISO)
100
AcDbLine
 10
2245.584967425203
 20
3867.03804829168
 30
0.0
 11
2318.564796732822
 21
3867.03804829168
 31
0.0
  0
ARC
  5
129
330
6C
100
AcDbEntity
  8
Widoczne (ISO)
100
AcDbCircle
 10
2285.231463399489
 20
3762.03804829168
 30
0.0
 40
6.666666666666683
100
AcDbArc
 50
90.0
 51
180.0
  0
ARC
  5
12A
330
6C
100
AcDbEntity
  8
Widoczne (ISO)
100
AcDbCircle
 10
2311.898130066155
 20
3775.371381625014
 30
0.0
 40
6.666666666666682
100
AcDbArc
 50
270.0
 51
0.0
  0
LINE
  5
12B
330
6C
100
AcDbEntity
  8
Widoczne (ISO)
100
AcDbLine
 10
2318.564796732839
 20
3786.621381625013
 30
0.0
 11
2318.56479673284
 21
3774.038048291681
 31
0.0
  0
ARC
  5
12C
330
6C
100
AcDbEntity
  8
Widoczne (ISO)
100
AcDbCircle
 10
2313.231463399507
 20
3774.038048291681
 30
0.0
 40
5.333333333333325
100
AcDbArc
 50
270.0
 51
0.0
  0
LINE
  5
12D
330
6C
100
AcDbEntity
  8
Widoczne (ISO)
100
AcDbLine
 10
2313.231463399507
 20
3768.704714958347
 30
0.0
 11
2287.231463399507
 21
3768.704714958347
 31
0.0
  0
ARC
  5
12E
330
6C
100
AcDbEntity
  8
Widoczne (ISO)
100
AcDbCircle
 10
2287.231463399507
 20
3760.038048291681
 30
0.0
 40
8.666666666666634
100
AcDbArc
 50
90.0
 51
180.0
  0
LINE
  5
12F
330
6C
100
AcDbEntity
  8
Widoczne (ISO)
100
AcDbLine
 10
2278.56479673284
 20
3760.038048291681
 30
0.0
 11
2278.56479673284
 21
3710.704714958347
 31
0.0
  0
ARC
  5
130
330
6C
100
AcDbEntity
  8
Widoczne (ISO)
100
AcDbCircle
 10
2287.231463399507
 20
3710.704714958347
 30
0.0
 40
8.666666666666635
100
AcDbArc
 50
180.0
 51
270.0
  0
LINE
  5
131
330
6C
100
AcDbEntity
  8
Widoczne (ISO)
100
AcDbLine
 10
2287.231463399507
 20
3702.038048291681
 30
0.0
 11
2397.49788131082
 21
3702.038048291681
 31
0.0
  0
ARC
  5
132
330
6C
100
AcDbEntity
  8
Widoczne (ISO)
100
AcDbCircle
 10
2397.49788131082
 20
3710.704714958347
 30
0.0
 40
8.666666666666548
100
AcDbArc
 50
270.0
 51
284.0362434679264
  0
LINE
  5
133
330
6C
100
AcDbEntity
  8
Widoczne (ISO)
100
AcDbLine
 10
2399.599856727801
 20
3702.296813290421
 30
0.0
 11
2411.898130066173
 21
3705.371381625014
 31
0.0
  0
LINE
  5
134
330
6C
100
AcDbEntity
  8
Widoczne (ISO)
100
AcDbLine
 10
2411.898130066173
 20
3705.371381625014
 30
0.0
 11
2411.089677982719
 21
3708.605189958831
 31
0.0
  0
LINE
  5
135
330
6C
100
AcDbEntity
  8
Widoczne (ISO)
100
AcDbLine
 10
2411.089677982719
 20
3708.605189958831
 30
0.0
 11
2398.791404644347
 21
3705.53062162424
 31
0.0
  0
ARC
  5
136
330
6C
100
AcDbEntity
  8
Widoczne (ISO)
100
AcDbCircle
 10
2397.49788131082
 20
3710.704714958347
 30
0.0
 40
5.333333333333352
100
AcDbArc
 50
270.0
 51
284.0362434679264
  0
LINE
  5
137
330
6C
100
AcDbEntity
  8
Widoczne (ISO)
100
AcDbLine
 10
2397.49788131082
 20
3705.371381625014
 30
0.0
 11
2287.231463399507
 21
3705.371381625014
 31
0.0
  0
ARC
  5
138
330
6C
100
AcDbEntity
  8
Widoczne (ISO)
100
AcDbCircle
 10
2287.231463399507
 20
3710.704714958347
 30
0.0
 40
5.333333333333311
100
AcDbArc
 50
180.0
 51
270.0
  0
LINE
  5
139
330
6C
100
AcDbEntity
  8
Widoczne (ISO)
100
AcDbLine
 10
2281.898130066174
 20
3710.704714958347
 30
0.0
 11
2281.898130066174
 21
3760.038048291681
 31
0.0
  0
ARC
  5
13A
330
6C
100
AcDbEntity
  8
Widoczne (ISO)
100
AcDbCircle
 10
2287.231463399507
 20
3760.038048291681
 30
0.0
 40
5.333333333333306
100
AcDbArc
 50
90.0
 51
180.0
  0
LINE
  5
13B
330
6C
100
AcDbEntity
  8
Widoczne (ISO)
100
AcDbLine
 10
2287.231463399507
 20
3765.371381625013
 30
0.0
 11
2313.231463399507
 21
3765.371381625013
 31
0.0
  0
ARC
  5
13C
330
6C
100
AcDbEntity
  8
Widoczne (ISO)
100
AcDbCircle
 10
2313.231463399507
 20
3774.038048291681
 30
0.0
 40
8.666666666666641
100
AcDbArc
 50
270.0
 51
0.0
  0
LINE
  5
13D
330
6C
100
AcDbEntity
  8
Widoczne (ISO)
100
AcDbLine
 10
2321.898130066173
 20
3774.038048291681
 30
0.0
 11
2321.898130066174
 21
3786.621381625013
 31
0.0
  0
LINE
  5
13E
330
6C
100
AcDbEntity
  8
Widoczne (ISO)
100
AcDbLine
 10
2321.898130066174
 20
3786.621381625013
 30
0.0
 11
2318.564796732839
 21
3786.621381625013
 31
0.0
  0
ARC
  5
13F
330
6C
100
AcDbEntity
  8
Widoczne (ISO)
100
AcDbCircle
 10
2327.231463399507
 20
3866.704714958347
 30
0.0
 40
5.333333333333338
100
AcDbArc
 50
90.0
 51
180.0
  0
LINE
  5
140
330
6C
100
AcDbEntity
  8
Widoczne (ISO)
100
AcDbLine
 10
2327.231463399506
 20
3872.03804829168
 30
0.0
 11
2348.56479673284
 21
3872.03804829168
 31
0.0
  0
LINE
  5
141
330
6C
100
AcDbEntity
  8
Widoczne (ISO)
100
AcDbLine
 10
2348.56479673284
 20
3872.03804829168
 30
0.0
 11
2348.56479673284
 21
3875.371381625013
 31
0.0
  0
LINE
  5
142
330
6C
100
AcDbEntity
  8
Widoczne (ISO)
100
AcDbLine
 10
2348.56479673284
 20
3875.371381625013
 30
0.0
 11
2327.231463399506
 21
3875.371381625013
 31
0.0
  0
ARC
  5
143
330
6C
100
AcDbEntity
  8
Widoczne (ISO)
100
AcDbCircle
 10
2327.231463399507
 20
3866.704714958347
 30
0.0
 40
8.666666666666626
100
AcDbArc
 50
90.0
 51
180.0
  0
LINE
  5
144
330
6C
100
AcDbEntity
  8
Widoczne (ISO)
100
AcDbLine
 10
2318.56479673284
 20
3866.704714958347
 30
0.0
 11
2318.564796732839
 21
3822.454714958347
 31
0.0
  0
LINE
  5
145
330
6C
100
AcDbEntity
  8
Widoczne (ISO)
100
AcDbLine
 10
2318.564796732839
 20
3822.454714958347
 30
0.0
 11
2321.898130066173
 21
3822.454714958347
 31
0.0
  0
LINE
  5
146
330
6C
100
AcDbEntity
  8
Widoczne (ISO)
100
AcDbLine
 10
2321.898130066173
 20
3822.454714958347
 30
0.0
 11
2321.898130066173
 21
3866.704714958347
 31
0.0
  0
LINE
  5
147
330
6C
100
AcDbEntity
  8
Widoczne (ISO)
100
AcDbLine
 10
2321.898130066173
 20
3786.621381625013
 30
0.0
 11
2321.898130066173
 21
3786.699069434507
 31
0.0
  0
LINE
  5
148
330
6C
100
AcDbEntity
  8
Widoczne (ISO)
100
AcDbLine
 10
2321.898130066173
 20
3802.871381625014
 30
0.0
 11
2321.898130066173
 21
3806.204714958347
 31
0.0
  0
LINE
  5
149
330
6C
100
AcDbEntity
  8
Widoczne (ISO)
100
AcDbLine
 10
2321.898130066173
 20
3822.377027148853
 30
0.0
 11
2321.898130066173
 21
3822.454714958347
 31
0.0
  0
LINE
  5
14A
330
6C
100
AcDbEntity
  8
Widoczne (ISO)
100
AcDbLine
 10
1065.231463399508
 20
3868.704714958347
 30
0.0
 11
1061.898130066175
 21
3868.704714958347
 31
0.0
  0
LINE
  5
14B
330
6C
100
AcDbEntity
  8
Widoczne (ISO)
100
AcDbLine
 10
1061.898130066175
 20
3868.704714958347
 30
0.0
 11
1061.898130066175
 21
3813.704714958348
 31
0.0
  0
LINE
  5
14C
330
6C
100
AcDbEntity
  8
Widoczne (ISO)
100
AcDbLine
 10
1061.898130066175
 20
3813.704714958348
 30
0.0
 11
1065.231463399508
 21
3813.704714958348
 31
0.0
  0
LINE
  5
14D
330
6C
100
AcDbEntity
  8
Widoczne (ISO)
100
AcDbLine
 10
1065.231463399508
 20
3813.704714958348
 30
0.0
 11
1065.231463399508
 21
3868.704714958347
 31
0.0
  0
LINE
  5
14E
330
6C
100
AcDbEntity
  8
Widoczne (ISO)
100
AcDbLine
 10
1065.231463399508
 20
3795.371381625014
 30
0.0
 11
1061.898130066175
 21
3795.371381625014
 31
0.0
  0
LINE
  5
14F
330
6C
100
AcDbEntity
  8
Widoczne (ISO)
100
AcDbLine
 10
1061.898130066175
 20
3795.371381625014
 30
0.0
 11
1061.898130066174
 21
3705.371381625015
 31
0.0
  0
LINE
  5
150
330
6C
100
AcDbEntity
  8
Widoczne (ISO)
100
AcDbLine
 10
1061.898130066175
 20
3705.371381625015
 30
0.0
 11
1065.231463399508
 21
3705.371381625015
 31
0.0
  0
LINE
  5
151
330
6C
100
AcDbEntity
  8
Widoczne (ISO)
100
AcDbLine
 10
1065.231463399508
 20
3705.371381625015
 30
0.0
 11
1065.231463399508
 21
3795.371381625014
 31
0.0
  0
LINE
  5
152
330
6C
100
AcDbEntity
  8
Widoczne (ISO)
100
AcDbLine
 10
1061.898130066175
 20
3795.371381625014
 30
0.0
 11
1061.898130066175
 21
3796.204714958348
 31
0.0
  0
LINE
  5
153
330
6C
100
AcDbEntity
  8
Widoczne (ISO)
100
AcDbLine
 10
1061.898130066175
 20
3812.703014100959
 30
0.0
 11
1061.898130066175
 21
3813.704714958348
 31
0.0
  0
LINE
  5
154
330
6C
100
AcDbEntity
  8
Widoczne (ISO)
100
AcDbLine
 10
1065.231463399508
 20
3813.704714958348
 30
0.0
 11
1065.231463399508
 21
3813.28804829168
 31
0.0
  0
LINE
  5
155
330
6C
100
AcDbEntity
  8
Widoczne (ISO)
100
AcDbLine
 10
1065.231463399508
 20
3795.788048291681
 30
0.0
 11
1065.231463399508
 21
3795.371381625014
 31
0.0
  0
LINE
  5
156
330
6C
100
AcDbEntity
  8
Widoczne (ISO)
100
AcDbLine
 10
1086.508929057572
 20
3868.704714958347
 30
0.0
 11
1068.564796732841
 21
3868.704714958347
 31
0.0
  0
LINE
  5
157
330
6C
100
AcDbEntity
  8
Widoczne (ISO)
100
AcDbLine
 10
1086.898130066174
 20
3705.371381625015
 30
0.0
 11
1086.898130066174
 21
3774.038048291681
 31
0.0
  0
LINE
  5
158
330
6C
100
AcDbEntity
  8
Widoczne (ISO)
100
AcDbLine
 10
1068.564796732841
 20
3868.704714958347
 30
0.0
 11
1065.231463399508
 21
3868.704714958347
 31
0.0
  0
LINE
  5
159
330
6C
100
AcDbEntity
  8
Widoczne (ISO)
100
AcDbLine
 10
2346.898130066174
 20
3868.704714958346
 30
0.0
 11
2343.56479673284
 21
3868.704714958346
 31
0.0
  0
LINE
  5
15A
330
6C
100
AcDbEntity
  8
Widoczne (ISO)
100
AcDbLine
 10
2343.56479673284
 20
3868.704714958346
 30
0.0
 11
2343.56479673284
 21
3813.704714958347
 31
0.0
  0
LINE
  5
15B
330
6C
100
AcDbEntity
  8
Widoczne (ISO)
100
AcDbLine
 10
2343.56479673284
 20
3813.704714958347
 30
0.0
 11
2346.898130066174
 21
3813.704714958347
 31
0.0
  0
LINE
  5
15C
330
6C
100
AcDbEntity
  8
Widoczne (ISO)
100
AcDbLine
 10
2346.898130066174
 20
3813.704714958347
 30
0.0
 11
2346.898130066174
 21
3868.704714958346
 31
0.0
  0
LINE
  5
15D
330
6C
100
AcDbEntity
  8
Widoczne (ISO)
100
AcDbLine
 10
2346.898130066174
 20
3795.371381625014
 30
0.0
 11
2343.56479673284
 21
3795.371381625014
 31
0.0
  0
LINE
  5
15E
330
6C
100
AcDbEntity
  8
Widoczne (ISO)
100
AcDbLine
 10
2343.56479673284
 20
3795.371381625014
 30
0.0
 11
2343.56479673284
 21
3705.371381625014
 31
0.0
  0
LINE
  5
15F
330
6C
100
AcDbEntity
  8
Widoczne (ISO)
100
AcDbLine
 10
2343.56479673284
 20
3705.371381625014
 30
0.0
 11
2346.898130066174
 21
3705.371381625014
 31
0.0
  0
LINE
  5
160
330
6C
100
AcDbEntity
  8
Widoczne (ISO)
100
AcDbLine
 10
2346.898130066174
 20
3705.371381625014
 30
0.0
 11
2346.898130066174
 21
3795.371381625014
 31
0.0
  0
LINE
  5
161
330
6C
100
AcDbEntity
  8
Widoczne (ISO)
100
AcDbLine
 10
2343.56479673284
 20
3795.371381625014
 30
0.0
 11
2343.56479673284
 21
3795.78804829168
 31
0.0
  0
LINE
  5
162
330
6C
100
AcDbEntity
  8
Widoczne (ISO)
100
AcDbLine
 10
2343.56479673284
 20
3813.28804829168
 30
0.0
 11
2343.56479673284
 21
3813.704714958347
 31
0.0
  0
LINE
  5
163
330
6C
100
AcDbEntity
  8
Widoczne (ISO)
100
AcDbLine
 10
2346.898130066174
 20
3813.704714958347
 30
0.0
 11
2346.898130066174
 21
3812.703014100958
 31
0.0
  0
LINE
  5
164
330
6C
100
AcDbEntity
  8
Widoczne (ISO)
100
AcDbLine
 10
2346.898130066174
 20
3796.204714958347
 30
0.0
 11
2346.898130066174
 21
3795.371381625014
 31
0.0
  0
LINE
  5
165
330
6C
100
AcDbEntity
  8
Widoczne (ISO)
100
AcDbLine
 10
2322.287331074776
 20
3868.704714958346
 30
0.0
 11
2340.231463399506
 21
3868.704714958346
 31
0.0
  0
LINE
  5
166
330
6C
100
AcDbEntity
  8
Widoczne (ISO)
100
AcDbLine
 10
2321.898130066173
 20
3774.038048291681
 30
0.0
 11
2321.898130066173
 21
3705.371381625013
 31
0.0
  0
LINE
  5
167
330
6C
100
AcDbEntity
  8
Widoczne (ISO)
100
AcDbLine
 10
2340.231463399506
 20
3868.704714958346
 30
0.0
 11
2343.56479673284
 21
3868.704714958346
 31
0.0
  0
LINE
  5
168
330
6C
100
AcDbEntity
  8
Widoczne (ISO)
100
AcDbLine
 10
1090.231463399508
 20
3825.371381625013
 30
0.0
 11
1090.231463399508
 21
3783.704714958348
 31
0.0
  0
ARC
  5
169
330
6C
100
AcDbEntity
  8
Widoczne (ISO)
100
AcDbCircle
 10
1090.231463399508
 20
3787.038048291681
 30
0.0
 40
3.33333333333333
100
AcDbArc
 50
270.0000000000076
 51
0.0
  0
LINE
  5
16A
330
6C
100
AcDbEntity
  8
Widoczne (ISO)
100
AcDbLine
 10
1093.564796732841
 20
3787.038048291681
 30
0.0
 11
1093.564796732841
 21
3822.03804829168
 31
0.0
  0
ARC
  5
16B
330
6C
100
AcDbEntity
  8
Widoczne (ISO)
100
AcDbCircle
 10
1090.231463399508
 20
3822.03804829168
 30
0.0
 40
3.333333333333349
100
AcDbArc
 50
0.0
 51
89.99999999999237
  0
LINE
  5
16C
330
6C
100
AcDbEntity
  8
Widoczne (ISO)
100
AcDbLine
 10
1077.731463399508
 20
3806.204714958347
 30
0.0
 11
1090.231463399508
 21
3806.204714958347
 31
0.0
  0
LINE
  5
16D
330
6C
100
AcDbEntity
  8
Widoczne (ISO)
100
AcDbLine
 10
1090.231463399508
 20
3802.871381625014
 30
0.0
 11
1077.731463399508
 21
3802.871381625014
 31
0.0
  0
LINE
  5
16E
330
6C
100
AcDbEntity
  8
Widoczne (ISO)
100
AcDbLine
 10
1077.731463399508
 20
3802.871381625014
 30
0.0
 11
1077.731463399508
 21
3789.630928441682
 31
0.0
  0
LINE
  5
16F
330
6C
100
AcDbEntity
  8
Widoczne (ISO)
100
AcDbLine
 10
1077.731463399508
 20
3819.44516814168
 30
0.0
 11
1077.731463399508
 21
3806.204714958347
 31
0.0
  0
LINE
  5
170
330
6C
100
AcDbEntity
  8
Widoczne (ISO)
100
AcDbLine
 10
1077.731463399508
 20
3789.630928441682
 30
0.0
 11
1090.231463399508
 21
3789.630928441682
 31
0.0
  0
LINE
  5
171
330
6C
100
AcDbEntity
  8
Widoczne (ISO)
100
AcDbLine
 10
1077.731463399508
 20
3787.954924339904
 30
0.0
 11
1077.731463399508
 21
3789.630928441682
 31
0.0
  0
SPLINE
  5
172
330
6C
100
AcDbEntity
  8
Widoczne (ISO)
100
AcDbSpline
210
0.0
220
0.0
230
1.0
 70
    12
 71
     2
 72
     6
 73
     3
 74
     0
 42
0.0000000001
 43
0.0000000001
 40
0.0
 40
0.0
 40
0.0
 40
0.2918858998468096
 40
0.2918858998468096
 40
0.2918858998468096
 10
1081.898130066174
 20
3785.443982896032
 30
0.0
 41
1.0
 10
1079.668172851614
 20
3786.787044597982
 30
0.0
 41
1.002464175917054
 10
1077.731463399508
 20
3787.954924339904
 30
0.0
 41
1.0
  0
SPLINE
  5
173
330
6C
100
AcDbEntity
  8
Widoczne (ISO)
100
AcDbSpline
210
0.0
220
0.0
230
1.0
 70
    12
 71
     2
 72
     6
 73
     3
 74
     0
 42
0.0000000001
 43
0.0000000001
 40
0.0
 40
0.0
 40
0.0
 40
0.4124118197930398
 40
0.4124118197930398
 40
0.4124118197930398
 10
1088.564796732841
 20
3787.117594158041
 30
0.0
 41
1.0
 10
1085.384243836716
 20
3786.318825146981
 30
0.0
 41
1.001043315288898
 10
1081.898130066174
 20
3785.443982896032
 30
0.0
 41
1.0
  0
LINE
  5
174
330
6C
100
AcDbEntity
  8
Widoczne (ISO)
100
AcDbLine
 10
1090.231463399508
 20
3787.117594158041
 30
0.0
 11
1088.564796732841
 21
3787.117594158041
 31
0.0
  0
LINE
  5
175
330
6C
100
AcDbEntity
  8
Widoczne (ISO)
100
AcDbLine
 10
1088.564796732841
 20
3821.958502425319
 30
0.0
 11
1090.231463399508
 21
3821.958502425319
 31
0.0
  0
SPLINE
  5
176
330
6C
100
AcDbEntity
  8
Widoczne (ISO)
100
AcDbSpline
210
0.0
220
0.0
230
1.0
 70
    12
 71
     2
 72
     6
 73
     3
 74
     0
 42
0.0000000001
 43
0.0000000001
 40
0.0
 40
0.0
 40
0.0
 40
0.4124118197930402
 40
0.4124118197930402
 40
0.4124118197930402
 10
1081.898130066174
 20
3823.63211368733
 30
0.0
 41
1.0
 10
1085.384243836196
 20
3822.75727143651
 30
0.0
 41
1.001043315253878
 10
1088.564796732841
 20
3821.958502425319
 30
0.0
 41
1.0
  0
SPLINE
  5
177
330
6C
100
AcDbEntity
  8
Widoczne (ISO)
100
AcDbSpline
210
0.0
220
0.0
230
1.0
 70
    12
 71
     2
 72
     6
 73
     3
 74
     0
 42
0.0000000001
 43
0.0000000001
 40
0.0
 40
0.0
 40
0.0
 40
0.2918858998468094
 40
0.2918858998468094
 40
0.2918858998468094
 10
1077.731463399508
 20
3821.121172243458
 30
0.0
 41
1.0
 10
1079.668172850112
 20
3822.289051984474
 30
0.0
 41
1.002464176047174
 10
1081.898130066174
 20
3823.63211368733
 30
0.0
 41
1.0
  0
LINE
  5
178
330
6C
100
AcDbEntity
  8
Widoczne (ISO)
100
AcDbLine
 10
1077.731463399508
 20
3819.445168141679
 30
0.0
 11
1077.731463399508
 21
3821.121172243458
 31
0.0
  0
LINE
  5
179
330
6C
100
AcDbEntity
  8
Widoczne (ISO)
100
AcDbLine
 10
1090.231463399508
 20
3819.445168141679
 30
0.0
 11
1077.731463399508
 21
3819.445168141679
 31
0.0
  0
LINE
  5
17A
330
6C
100
AcDbEntity
  8
Widoczne (ISO)
100
AcDbLine
 10
2318.564796732839
 20
3783.704714958348
 30
0.0
 11
2318.564796732839
 21
3825.371381625015
 31
0.0
  0
ARC
  5
17B
330
6C
100
AcDbEntity
  8
Widoczne (ISO)
100
AcDbCircle
 10
2318.564796732839
 20
3822.038048291682
 30
0.0
 40
3.333333333333349
100
AcDbArc
 50
90.00000000000509
 51
180.0
  0
LINE
  5
17C
330
6C
100
AcDbEntity
  8
Widoczne (ISO)
100
AcDbLine
 10
2315.231463399506
 20
3822.038048291682
 30
0.0
 11
2315.231463399506
 21
3787.038048291682
 31
0.0
  0
ARC
  5
17D
330
6C
100
AcDbEntity
  8
Widoczne (ISO)
100
AcDbCircle
 10
2318.564796732839
 20
3787.038048291682
 30
0.0
 40
3.333333333333334
100
AcDbArc
 50
180.0
 51
269.9999999999949
  0
LINE
  5
17E
330
6C
100
AcDbEntity
  8
Widoczne (ISO)
100
AcDbLine
 10
2331.06479673284
 20
3802.871381625015
 30
0.0
 11
2318.564796732839
 21
3802.871381625015
 31
0.0
  0
LINE
  5
17F
330
6C
100
AcDbEntity
  8
Widoczne (ISO)
100
AcDbLine
 10
2318.564796732839
 20
3806.204714958348
 30
0.0
 11
2331.06479673284
 21
3806.204714958348
 31
0.0
  0
LINE
  5
180
330
6C
100
AcDbEntity
  8
Widoczne (ISO)
100
AcDbLine
 10
2320.231463399506
 20
3787.117594158042
 30
0.0
 11
2318.564796732839
 21
3787.117594158042
 31
0.0
  0
SPLINE
  5
181
330
6C
100
AcDbEntity
  8
Widoczne (ISO)
100
AcDbSpline
210
0.0
220
0.0
230
1.0
 70
    12
 71
     2
 72
     6
 73
     3
 74
     0
 42
0.0000000001
 43
0.0000000001
 40
0.0
 40
0.0
 40
0.0
 40
0.4124118197930398
 40
0.4124118197930398
 40
0.4124118197930398
 10
2326.898130066173
 20
3785.443982896032
 30
0.0
 41
1.0
 10
2323.412016295631
 20
3786.318825146982
 30
0.0
 41
1.001043315288898
 10
2320.231463399506
 20
3787.117594158042
 30
0.0
 41
1.0
  0
SPLINE
  5
182
330
6C
100
AcDbEntity
  8
Widoczne (ISO)
100
AcDbSpline
210
0.0
220
0.0
230
1.0
 70
    12
 71
     2
 72
     6
 73
     3
 74
     0
 42
0.0000000001
 43
0.0000000001
 40
0.0
 40
0.0
 40
0.0
 40
0.2918858998468096
 40
0.2918858998468096
 40
0.2918858998468096
 10
2331.06479673284
 20
3787.954924339904
 30
0.0
 41
1.0
 10
2329.128087280733
 20
3786.787044597982
 30
0.0
 41
1.002464175917054
 10
2326.898130066172
 20
3785.443982896032
 30
0.0
 41
1.0
  0
LINE
  5
183
330
6C
100
AcDbEntity
  8
Widoczne (ISO)
100
AcDbLine
 10
2331.06479673284
 20
3789.630928441682
 30
0.0
 11
2331.06479673284
 21
3787.954924339904
 31
0.0
  0
LINE
  5
184
330
6C
100
AcDbEntity
  8
Widoczne (ISO)
100
AcDbLine
 10
2318.564796732839
 20
3789.630928441682
 30
0.0
 11
2331.06479673284
 21
3789.630928441682
 31
0.0
  0
LINE
  5
185
330
6C
100
AcDbEntity
  8
Widoczne (ISO)
100
AcDbLine
 10
2318.564796732839
 20
3821.95850242532
 30
0.0
 11
2320.231463399506
 21
3821.95850242532
 31
0.0
  0
LINE
  5
186
330
6C
100
AcDbEntity
  8
Widoczne (ISO)
100
AcDbLine
 10
2331.06479673284
 20
3819.44516814168
 30
0.0
 11
2318.564796732839
 21
3819.44516814168
 31
0.0
  0
LINE
  5
187
330
6C
100
AcDbEntity
  8
Widoczne (ISO)
100
AcDbLine
 10
2331.06479673284
 20
3821.121172243458
 30
0.0
 11
2331.06479673284
 21
3819.44516814168
 31
0.0
  0
SPLINE
  5
188
330
6C
100
AcDbEntity
  8
Widoczne (ISO)
100
AcDbSpline
210
0.0
220
0.0
230
1.0
 70
    12
 71
     2
 72
     6
 73
     3
 74
     0
 42
0.0000000001
 43
0.0000000001
 40
0.0
 40
0.0
 40
0.0
 40
0.2918858998468094
 40
0.2918858998468094
 40
0.2918858998468094
 10
2326.898130066172
 20
3823.632113687331
 30
0.0
 41
1.0
 10
2329.128087282235
 20
3822.289051984475
 30
0.0
 41
1.002464176047174
 10
2331.06479673284
 20
3821.121172243458
 30
0.0
 41
1.0
  0
SPLINE
  5
189
330
6C
100
AcDbEntity
  8
Widoczne (ISO)
100
AcDbSpline
210
0.0
220
0.0
230
1.0
 70
    12
 71
     2
 72
     6
 73
     3
 74
     0
 42
0.0000000001
 43
0.0000000001
 40
0.0
 40
0.0
 40
0.0
 40
0.4124118197930402
 40
0.4124118197930402
 40
0.4124118197930402
 10
2320.231463399506
 20
3821.95850242532
 30
0.0
 41
1.0
 10
2323.412016296151
 20
3822.757271436511
 30
0.0
 41
1.001043315253878
 10
2326.898130066172
 20
3823.632113687331
 30
0.0
 41
1.0
  0
LINE
  5
18A
330
6C
100
AcDbEntity
  8
Widoczne (ISO)
100
AcDbLine
 10
2331.06479673284
 20
3789.630928441682
 30
0.0
 11
2331.06479673284
 21
3802.871381625015
 31
0.0
  0
LINE
  5
18B
330
6C
100
AcDbEntity
  8
Widoczne (ISO)
100
AcDbLine
 10
2331.06479673284
 20
3806.204714958349
 30
0.0
 11
2331.06479673284
 21
3819.44516814168
 31
0.0
  0
LINE
  5
18C
330
6C
100
AcDbEntity
  8
Widoczne (ISO)
100
AcDbLine
 10
1178.564796732835
 20
3769.204714958347
 30
0.0
 11
1178.564796732835
 21
3767.871381625013
 31
0.0
  0
LINE
  5
18D
330
6C
100
AcDbEntity
  8
Widoczne (ISO)
100
AcDbLine
 10
1178.564796732835
 20
3767.871381625013
 30
0.0
 11
2263.564796732836
 21
3767.871381625015
 31
0.0
  0
LINE
  5
18E
330
6C
100
AcDbEntity
  8
Widoczne (ISO)
100
AcDbLine
 10
2263.564796732836
 20
3767.871381625015
 30
0.0
 11
2263.564796732836
 21
3769.204714958348
 31
0.0
  0
LINE
  5
18F
330
6C
100
AcDbEntity
  8
Widoczne (ISO)
100
AcDbLine
 10
2263.564796732836
 20
3769.204714958348
 30
0.0
 11
1178.564796732835
 21
3769.204714958347
 31
0.0
  0
LINE
  5
190
330
6C
100
AcDbEntity
  8
Widoczne (ISO)
100
AcDbLine
 10
1178.564796732628
 20
3767.871381625027
 30
0.0
 11
1178.564796732627
 21
3767.53804829168
 31
0.0
  0
LINE
  5
191
330
6C
100
AcDbEntity
  8
Widoczne (ISO)
100
AcDbLine
 10
2263.564796732628
 20
3767.871381625029
 30
0.0
 11
2263.564796732628
 21
3767.53804829168
 31
0.0
  0
LINE
  5
192
330
6C
100
AcDbEntity
  8
Widoczne (ISO)
100
AcDbLine
 10
2223.564796732635
 20
3770.371381625029
 30
0.0
 11
2190.231463399444
 21
3770.371381625029
 31
0.0
  0
LINE
  5
193
330
6C
100
AcDbEntity
  8
Widoczne (ISO)
100
AcDbLine
 10
1281.898130066007
 20
3770.371381625029
 30
0.0
 11
1226.898130066169
 21
3770.371381625028
 31
0.0
  0
LINE
  5
194
330
6C
100
AcDbEntity
  8
Widoczne (ISO)
100
AcDbLine
 10
2223.564796732635
 20
3772.038048291697
 30
0.0
 11
2192.547988822599
 21
3772.038048291697
 31
0.0
  0
LINE
  5
195
330
6C
100
AcDbEntity
  8
Widoczne (ISO)
100
AcDbLine
 10
1281.898130066007
 20
3772.038048291695
 30
0.0
 11
1226.898130066169
 21
3772.038048291695
 31
0.0
  0
LINE
  5
196
330
6C
100
AcDbEntity
  8
Widoczne (ISO)
100
AcDbLine
 10
1226.898130066169
 20
3701.204714958362
 30
0.0
 11
1281.898130066007
 21
3701.204714958362
 31
0.0
  0
LINE
  5
197
330
6C
100
AcDbEntity
  8
Widoczne (ISO)
100
AcDbLine
 10
2190.231463399444
 20
3701.204714958363
 30
0.0
 11
2223.564796732635
 21
3701.204714958363
 31
0.0
  0
LINE
  5
198
330
6C
100
AcDbEntity
  8
Widoczne (ISO)
100
AcDbLine
 10
2223.564796732635
 20
3702.87138162503
 30
0.0
 11
2190.231463399444
 21
3702.87138162503
 31
0.0
  0
LINE
  5
199
330
6C
100
AcDbEntity
  8
Widoczne (ISO)
100
AcDbLine
 10
1281.898130066001
 20
3702.871381625028
 30
0.0
 11
1215.231463399301
 21
3702.871381625028
 31
0.0
  0
ARC
  5
19A
330
6C
100
AcDbEntity
  8
Widoczne (ISO)
100
AcDbCircle
 10
2270.231463399503
 20
3768.704714958349
 30
0.0
 40
1.666666666666661
100
AcDbArc
 50
0.0
 51
90.0
  0
LINE
  5
19B
330
6C
100
AcDbEntity
  8
Widoczne (ISO)
100
AcDbLine
 10
2271.89813006617
 20
3768.704714958349
 30
0.0
 11
2271.898130066173
 21
3704.538048291682
 31
0.0
  0
ARC
  5
19C
330
6C
100
AcDbEntity
  8
Widoczne (ISO)
100
AcDbCircle
 10
2270.231463399506
 20
3704.538048291682
 30
0.0
 40
1.666666666666662
100
AcDbArc
 50
270.0
 51
0.0
  0
LINE
  5
19D
330
6C
100
AcDbEntity
  8
Widoczne (ISO)
100
AcDbLine
 10
2270.231463399506
 20
3702.871381625015
 30
0.0
 11
2223.564796732839
 21
3702.871381625012
 31
0.0
  0
LINE
  5
19E
330
6C
100
AcDbEntity
  8
Widoczne (ISO)
100
AcDbLine
 10
2223.564796732839
 20
3702.871381625012
 30
0.0
 11
2223.564796732839
 21
3701.204714958346
 31
0.0
  0
LINE
  5
19F
330
6C
100
AcDbEntity
  8
Widoczne (ISO)
100
AcDbLine
 10
2223.564796732839
 20
3701.204714958346
 30
0.0
 11
2270.231463399506
 21
3701.204714958348
 31
0.0
  0
ARC
  5
1A0
330
6C
100
AcDbEntity
  8
Widoczne (ISO)
100
AcDbCircle
 10
2270.231463399506
 20
3704.538048291682
 30
0.0
 40
3.333333333333337
100
AcDbArc
 50
270.0000000000051
 51
0.0
  0
LINE
  5
1A1
330
6C
100
AcDbEntity
  8
Widoczne (ISO)
100
AcDbLine
 10
2273.564796732839
 20
3704.538048291682
 30
0.0
 11
2273.564796732836
 21
3768.704714958349
 31
0.0
  0
ARC
  5
1A2
330
6C
100
AcDbEntity
  8
Widoczne (ISO)
100
AcDbCircle
 10
2270.231463399503
 20
3768.704714958349
 30
0.0
 40
3.333333333333331
100
AcDbArc
 50
0.0
 51
90.0
  0
LINE
  5
1A3
330
6C
100
AcDbEntity
  8
Widoczne (ISO)
100
AcDbLine
 10
2270.231463399502
 20
3772.038048291682
 30
0.0
 11
2223.564796732835
 21
3772.038048291679
 31
0.0
  0
LINE
  5
1A4
330
6C
100
AcDbEntity
  8
Widoczne (ISO)
100
AcDbLine
 10
2223.564796732835
 20
3772.038048291679
 30
0.0
 11
2223.564796732836
 21
3770.371381625012
 31
0.0
  0
LINE
  5
1A5
330
6C
100
AcDbEntity
  8
Widoczne (ISO)
100
AcDbLine
 10
2223.564796732835
 20
3770.371381625012
 30
0.0
 11
2270.231463399503
 21
3770.371381625015
 31
0.0
  0
ARC
  5
1A6
330
6C
100
AcDbEntity
  8
Widoczne (ISO)
100
AcDbCircle
 10
1427.363322128675
 20
3699.204714958349
 30
0.0
 40
5.000000000000087
100
AcDbArc
 50
244.7624786164481
 51
270.0
  0
LINE
  5
1A7
330
6C
100
AcDbEntity
  8
Widoczne (ISO)
100
AcDbLine
 10
1691.898130066168
 20
3694.204714958348
 30
0.0
 11
1427.363322128675
 21
3694.204714958348
 31
0.0
  0
LINE
  5
1A8
330
6C
100
AcDbEntity
  8
Widoczne (ISO)
100
AcDbLine
 10
1425.231463399484
 20
3694.681974820028
 30
0.0
 11
1409.911630162277
 21
3701.903198949127
 31
0.0
  0
LINE
  5
1A9
330
6C
100
AcDbEntity
  8
Widoczne (ISO)
100
AcDbLine
 10
1691.898130066169
 20
3702.538048291681
 30
0.0
 11
1410.053754077556
 21
3702.538048291682
 31
0.0
  0
ARC
  5
1AA
330
6C
100
AcDbEntity
  8
Widoczne (ISO)
100
AcDbCircle
 10
1410.053754077556
 20
3702.204714958349
 30
0.0
 40
0.3333333333333463
100
AcDbArc
 50
89.9999999999491
 51
244.7624786164293
  0
LINE
  5
1AB
330
6C
100
AcDbEntity
  8
Widoczne (ISO)
100
AcDbLine
 10
1441.898130066151
 20
3702.538048291682
 30
0.0
 11
1441.898130066151
 21
3704.204714958347
 31
0.0
  0
LINE
  5
1AC
330
6C
100
AcDbEntity
  8
Widoczne (ISO)
100
AcDbLine
 10
1441.898130066151
 20
3767.538048291682
 30
0.0
 11
1441.898130066151
 21
3767.871381625014
 31
0.0
  0
ARC
  5
1AD
330
6C
100
AcDbEntity
  8
Widoczne (ISO)
100
AcDbCircle
 10
1410.053754077555
 20
3769.538048291682
 30
0.0
 40
0.3333333333333324
100
AcDbArc
 50
115.2375213835706
 51
270.0
  0
LINE
  5
1AE
330
6C
100
AcDbEntity
  8
Widoczne (ISO)
100
AcDbLine
 10
1409.911630162276
 20
3769.839564300903
 30
0.0
 11
1425.231463399484
 21
3777.060788430002
 31
0.0
  0
LINE
  5
1AF
330
6C
100
AcDbEntity
  8
Widoczne (ISO)
100
AcDbLine
 10
1691.898130066168
 20
3777.538048291681
 30
0.0
 11
1427.363322128674
 21
3777.538048291682
 31
0.0
  0
ARC
  5
1B0
330
6C
100
AcDbEntity
  8
Widoczne (ISO)
100
AcDbCircle
 10
1427.363322128674
 20
3772.538048291682
 30
0.0
 40
5.000000000000009
100
AcDbArc
 50
90.00000000000337
 51
115.2375213835578
  0
ARC
  5
1B1
330
6C
100
AcDbEntity
  8
Widoczne (ISO)
100
AcDbCircle
 10
2014.766271336959
 20
3699.20471495835
 30
0.0
 40
5.000000000000635
100
AcDbArc
 50
270.0
 51
295.237521383549
  0
LINE
  5
1B2
330
6C
100
AcDbEntity
  8
Widoczne (ISO)
100
AcDbLine
 10
2016.898130066149
 20
3694.681974820029
 30
0.0
 11
2032.217963303357
 21
3701.903198949128
 31
0.0
  0
ARC
  5
1B3
330
6C
100
AcDbEntity
  8
Widoczne (ISO)
100
AcDbCircle
 10
2032.075839388078
 20
3702.204714958349
 30
0.0
 40
0.3333333333333528
100
AcDbArc
 50
295.2375213835246
 51
90.0
  0
LINE
  5
1B4
330
6C
100
AcDbEntity
  8
Widoczne (ISO)
100
AcDbLine
 10
2000.231463399483
 20
3702.538048291682
 30
0.0
 11
2000.231463399483
 21
3704.204714958347
 31
0.0
  0
LINE
  5
1B5
330
6C
100
AcDbEntity
  8
Widoczne (ISO)
100
AcDbLine
 10
2000.231463399483
 20
3767.538048291682
 30
0.0
 11
2000.231463399483
 21
3767.871381625015
 31
0.0
  0
ARC
  5
1B6
330
6C
100
AcDbEntity
  8
Widoczne (ISO)
100
AcDbCircle
 10
2032.075839388078
 20
3769.538048291682
 30
0.0
 40
0.3333333333333195
100
AcDbArc
 50
269.9999999998982
 51
64.76247861652142
  0
LINE
  5
1B7
330
6C
100
AcDbEntity
  8
Widoczne (ISO)
100
AcDbLine
 10
2032.217963303358
 20
3769.839564300904
 30
0.0
 11
2016.89813006615
 21
3777.060788430003
 31
0.0
  0
ARC
  5
1B8
330
6C
100
AcDbEntity
  8
Widoczne (ISO)
100
AcDbCircle
 10
2014.766271336959
 20
3772.538048291683
 30
0.0
 40
4.999999999998729
100
AcDbArc
 50
64.76247861644846
 51
90.00000000000676
  0
LINE
  5
1B9
330
6C
100
AcDbEntity
  8
Widoczne (ISO)
100
AcDbLine
 10
1691.898130066168
 20
3694.204714958348
 30
0.0
 11
1750.231463399502
 21
3694.204714958348
 31
0.0
  0
LINE
  5
1BA
330
6C
100
AcDbEntity
  8
Widoczne (ISO)
100
AcDbLine
 10
2014.766271336959
 20
3694.204714958349
 30
0.0
 11
1750.231463399502
 21
3694.204714958348
 31
0.0
  0
LINE
  5
1BB
330
6C
100
AcDbEntity
  8
Widoczne (ISO)
100
AcDbLine
 10
2032.075839388078
 20
3702.538048291682
 30
0.0
 11
1750.231463399503
 21
3702.538048291681
 31
0.0
  0
LINE
  5
1BC
330
6C
100
AcDbEntity
  8
Widoczne (ISO)
100
AcDbLine
 10
1691.898130066169
 20
3702.53804829168
 30
0.0
 11
1750.231463399503
 21
3702.538048291681
 31
0.0
  0
LINE
  5
1BD
330
6C
100
AcDbEntity
  8
Widoczne (ISO)
100
AcDbLine
 10
2014.766271336959
 20
3777.538048291682
 30
0.0
 11
1750.231463399502
 21
3777.538048291681
 31
0.0
  0
LINE
  5
1BE
330
6C
100
AcDbEntity
  8
Widoczne (ISO)
100
AcDbLine
 10
1691.898130066168
 20
3777.538048291681
 30
0.0
 11
1750.231463399502
 21
3777.538048291681
 31
0.0
  0
LINE
  5
1BF
330
6C
100
AcDbEntity
  8
Widoczne (ISO)
100
AcDbLine
 10
1221.564796732837
 20
3766.204714958346
 30
0.0
 11
1184.564796732837
 21
3766.204714958346
 31
0.0
  0
ARC
  5
1C0
330
6C
100
AcDbEntity
  8
Widoczne (ISO)
100
AcDbCircle
 10
1184.564796732837
 20
3753.204714958346
 30
0.0
 40
13.00000000000002
100
AcDbArc
 50
90.00000000000063
 51
155.260562535436
  0
LINE
  5
1C1
330
6C
100
AcDbEntity
  8
Widoczne (ISO)
100
AcDbLine
 10
1172.75793232918
 20
3758.645115031288
 30
0.0
 11
1178.699470906734
 21
3758.645115031287
 31
0.0
  0
ARC
  5
1C2
330
6C
100
AcDbEntity
  8
Widoczne (ISO)
100
AcDbCircle
 10
1184.564796732837
 20
3753.204714958346
 30
0.0
 40
8.000000000000014
100
AcDbArc
 50
89.99999999999895
 51
137.1524489440244
  0
LINE
  5
1C3
330
6C
100
AcDbEntity
  8
Widoczne (ISO)
100
AcDbLine
 10
1184.564796732837
 20
3761.204714958347
 30
0.0
 11
1221.564796732837
 21
3761.204714958347
 31
0.0
  0
LINE
  5
1C4
330
6C
100
AcDbEntity
  8
Widoczne (ISO)
100
AcDbLine
 10
1221.564796732837
 20
3761.204714958347
 30
0.0
 11
1221.564796732837
 21
3766.204714958346
 31
0.0
  0
LINE
  5
1C5
330
6C
100
AcDbEntity
  8
Widoczne (ISO)
100
AcDbLine
 10
1178.699470906734
 20
3712.097648218739
 30
0.0
 11
1172.75793232918
 21
3712.097648218738
 31
0.0
  0
ARC
  5
1C6
330
6C
100
AcDbEntity
  8
Widoczne (ISO)
100
AcDbCircle
 10
1184.564796732837
 20
3717.53804829168
 30
0.0
 40
13.00000000000002
100
AcDbArc
 50
204.7394374645669
 51
270.0000000000013
  0
LINE
  5
1C7
330
6C
100
AcDbEntity
  8
Widoczne (ISO)
100
AcDbLine
 10
1184.564796732837
 20
3704.53804829168
 30
0.0
 11
1221.564796732837
 21
3704.53804829168
 31
0.0
  0
LINE
  5
1C8
330
6C
100
AcDbEntity
  8
Widoczne (ISO)
100
AcDbLine
 10
1221.564796732837
 20
3704.53804829168
 30
0.0
 11
1221.564796732837
 21
3709.53804829168
 31
0.0
  0
LINE
  5
1C9
330
6C
100
AcDbEntity
  8
Widoczne (ISO)
100
AcDbLine
 10
1221.564796732837
 20
3709.53804829168
 30
0.0
 11
1184.564796732837
 21
3709.53804829168
 31
0.0
  0
ARC
  5
1CA
330
6C
100
AcDbEntity
  8
Widoczne (ISO)
100
AcDbCircle
 10
1184.564796732837
 20
3717.53804829168
 30
0.0
 40
7.999999999999959
100
AcDbArc
 50
222.8475510559756
 51
270.0
  0
ARC
  5
1CB
330
6C
100
AcDbEntity
  8
Widoczne (ISO)
100
AcDbCircle
 10
1143.87729673284
 20
3713.704714958348
 30
0.0
 40
21.3541666666667
100
AcDbArc
 50
282.6803834918199
 51
0.0
  0
ARC
  5
1CC
330
6C
100
AcDbEntity
  8
Widoczne (ISO)
100
AcDbCircle
 10
1143.87729673284
 20
3757.038048291681
 30
0.0
 40
21.35416666666671
100
AcDbArc
 50
0.0
 51
77.31961650818011
  0
LINE
  5
1CD
330
6C
100
AcDbEntity
  8
Widoczne (ISO)
100
AcDbLine
 10
1148.56479673284
 20
3692.871381625014
 30
0.0
 11
1111.898130066173
 21
3695.371381625014
 31
0.0
  0
LINE
  5
1CE
330
6C
100
AcDbEntity
  8
Widoczne (ISO)
100
AcDbLine
 10
1111.898130066173
 20
3695.371381625014
 30
0.0
 11
1111.898130066173
 21
3702.038048291681
 31
0.0
  0
LINE
  5
1CF
330
6C
100
AcDbEntity
  8
Widoczne (ISO)
100
AcDbLine
 10
1121.564796732841
 20
3702.038048291681
 30
0.0
 11
1130.231463399506
 21
3702.038048291681
 31
0.0
  0
LINE
  5
1D0
330
6C
100
AcDbEntity
  8
Widoczne (ISO)
100
AcDbLine
 10
1130.231463399506
 20
3702.038048291681
 30
0.0
 11
1130.231463399506
 21
3710.704714958347
 31
0.0
  0
LINE
  5
1D1
330
6C
100
AcDbEntity
  8
Widoczne (ISO)
100
AcDbLine
 10
1130.231463399506
 20
3760.038048291681
 30
0.0
 11
1130.231463399506
 21
3768.704714958349
 31
0.0
  0
LINE
  5
1D2
330
6C
100
AcDbEntity
  8
Widoczne (ISO)
100
AcDbLine
 10
1130.231463399506
 20
3768.704714958349
 30
0.0
 11
1121.564796732841
 21
3768.704714958349
 31
0.0
  0
LINE
  5
1D3
330
6C
100
AcDbEntity
  8
Widoczne (ISO)
100
AcDbLine
 10
1111.898130066172
 20
3768.704714958349
 30
0.0
 11
1111.898130066172
 21
3775.371381625015
 31
0.0
  0
LINE
  5
1D4
330
6C
100
AcDbEntity
  8
Widoczne (ISO)
100
AcDbLine
 10
1111.898130066172
 20
3775.371381625015
 30
0.0
 11
1148.564796732839
 21
3777.871381625015
 31
0.0
  0
LINE
  5
1D5
330
6C
100
AcDbEntity
  8
Widoczne (ISO)
100
AcDbLine
 10
1178.231463399503
 20
3697.03804829168
 30
0.0
 11
1226.89813006617
 21
3697.03804829168
 31
0.0
  0
LINE
  5
1D6
330
6C
100
AcDbEntity
  8
Widoczne (ISO)
100
AcDbLine
 10
1226.89813006617
 20
3697.03804829168
 30
0.0
 11
1226.89813006617
 21
3702.03804829168
 31
0.0
  0
LINE
  5
1D7
330
6C
100
AcDbEntity
  8
Widoczne (ISO)
100
AcDbLine
 10
1226.89813006617
 20
3702.03804829168
 30
0.0
 11
1178.231463399503
 21
3702.038048291681
 31
0.0
  0
ARC
  5
1D8
330
6C
100
AcDbEntity
  8
Widoczne (ISO)
100
AcDbCircle
 10
1178.231463399503
 20
3710.038048291681
 30
0.0
 40
8.000000000000126
100
AcDbArc
 50
180.0
 51
270.0
  0
LINE
  5
1D9
330
6C
100
AcDbEntity
  8
Widoczne (ISO)
100
AcDbLine
 10
1170.231463399503
 20
3710.038048291681
 30
0.0
 11
1170.231463399503
 21
3718.788257673245
 31
0.0
  0
LINE
  5
1DA
330
6C
100
AcDbEntity
  8
Widoczne (ISO)
100
AcDbLine
 10
1170.231463399503
 20
3718.788257673245
 30
0.0
 11
1165.231463399503
 21
3718.788257673246
 31
0.0
  0
LINE
  5
1DB
330
6C
100
AcDbEntity
  8
Widoczne (ISO)
100
AcDbLine
 10
1165.231463399503
 20
3718.788257673246
 30
0.0
 11
1165.231463399503
 21
3710.038048291681
 31
0.0
  0
ARC
  5
1DC
330
6C
100
AcDbEntity
  8
Widoczne (ISO)
100
AcDbCircle
 10
1178.231463399503
 20
3710.038048291681
 30
0.0
 40
13.00000000000019
100
AcDbArc
 50
180.0
 51
269.9999999999993
  0
LINE
  5
1DD
330
6C
100
AcDbEntity
  8
Widoczne (ISO)
100
AcDbLine
 10
1226.89813006617
 20
3773.704714958347
 30
0.0
 11
1178.231463399503
 21
3773.704714958348
 31
0.0
  0
ARC
  5
1DE
330
6C
100
AcDbEntity
  8
Widoczne (ISO)
100
AcDbCircle
 10
1178.231463399503
 20
3760.704714958348
 30
0.0
 40
13.0000000000002
100
AcDbArc
 50
90.0
 51
180.0
  0
LINE
  5
1DF
330
6C
100
AcDbEntity
  8
Widoczne (ISO)
100
AcDbLine
 10
1165.231463399503
 20
3760.704714958348
 30
0.0
 11
1165.231463399503
 21
3751.954505576783
 31
0.0
  0
LINE
  5
1E0
330
6C
100
AcDbEntity
  8
Widoczne (ISO)
100
AcDbLine
 10
1165.231463399503
 20
3751.954505576783
 30
0.0
 11
1170.231463399503
 21
3751.954505576783
 31
0.0
  0
LINE
  5
1E1
330
6C
100
AcDbEntity
  8
Widoczne (ISO)
100
AcDbLine
 10
1170.231463399503
 20
3751.954505576783
 30
0.0
 11
1170.231463399503
 21
3760.704714958348
 31
0.0
  0
ARC
  5
1E2
330
6C
100
AcDbEntity
  8
Widoczne (ISO)
100
AcDbCircle
 10
1178.231463399503
 20
3760.704714958348
 30
0.0
 40
8.000000000000119
100
AcDbArc
 50
90.0
 51
180.0
  0
LINE
  5
1E3
330
6C
100
AcDbEntity
  8
Widoczne (ISO)
100
AcDbLine
 10
1178.231463399503
 20
3768.704714958347
 30
0.0
 11
1226.89813006617
 21
3768.704714958347
 31
0.0
  0
LINE
  5
1E4
330
6C
100
AcDbEntity
  8
Widoczne (ISO)
100
AcDbLine
 10
1226.89813006617
 20
3768.704714958347
 30
0.0
 11
1226.89813006617
 21
3773.704714958347
 31
0.0
  0
LINE
  5
1E5
330
6C
100
AcDbEntity
  8
Widoczne (ISO)
100
AcDbLine
 10
1170.231463399503
 20
3718.788257673246
 30
0.0
 11
1170.231463399503
 21
3714.604821967725
 31
0.0
  0
LINE
  5
1E6
330
6C
100
AcDbEntity
  8
Widoczne (ISO)
100
AcDbLine
 10
1170.231463399503
 20
3714.604821967725
 30
0.0
 11
1176.898130066169
 21
3714.604821967725
 31
0.0
  0
LINE
  5
1E7
330
6C
100
AcDbEntity
  8
Widoczne (ISO)
100
AcDbLine
 10
1176.898130066169
 20
3714.604821967725
 30
0.0
 11
1176.898130066169
 21
3721.303095778245
 31
0.0
  0
LINE
  5
1E8
330
6C
100
AcDbEntity
  8
Widoczne (ISO)
100
AcDbLine
 10
1176.898130066169
 20
3721.303095778245
 30
0.0
 11
1190.231463399503
 21
3721.303095778245
 31
0.0
  0
LINE
  5
1E9
330
6C
100
AcDbEntity
  8
Widoczne (ISO)
100
AcDbLine
 10
1190.231463399503
 20
3721.303095778245
 30
0.0
 11
1190.231463399503
 21
3721.554875795642
 31
0.0
  0
LINE
  5
1EA
330
6C
100
AcDbEntity
  8
Widoczne (ISO)
100
AcDbLine
 10
1190.231463399503
 20
3721.554875795642
 30
0.0
 11
1211.898130066171
 21
3721.554875795642
 31
0.0
  0
LINE
  5
1EB
330
6C
100
AcDbEntity
  8
Widoczne (ISO)
100
AcDbLine
 10
1211.898130066171
 20
3721.554875795642
 30
0.0
 11
1211.898130066171
 21
3723.824376241232
 31
0.0
  0
LINE
  5
1EC
330
6C
100
AcDbEntity
  8
Widoczne (ISO)
100
AcDbLine
 10
1211.898130066171
 20
3723.824376241232
 30
0.0
 11
1167.731463399502
 21
3723.824376241234
 31
0.0
  0
SPLINE
  5
1ED
330
6C
100
AcDbEntity
  8
Widoczne (ISO)
100
AcDbSpline
210
0.0
220
0.0
230
1.0
 70
     8
 71
     3
 72
    14
 73
    10
 74
     0
 42
0.0000000001
 43
0.0000000001
 40
0.4458820237024391
 40
0.4458820237024391
 40
0.4458820237024391
 40
0.4458820237024391
 40
0.5012548518761514
 40
0.5012548518761514
 40
0.5569172533933321
 40
0.5569172533933321
 40
0.612860154425781
 40
0.612860154425781
 40
0.6689441094953575
 40
0.6689441094953575
 40
0.6689441094953575
 40
0.6689441094953575
 10
1167.731463399503
 20
3723.824376241234
 30
0.0
 10
1167.423836576316
 20
3723.824376241234
 30
0.0
 10
1167.061889340973
 20
3723.75179844433
 30
0.0
 10
1166.492492942106
 20
3723.514507598185
 30
0.0
 10
1166.184669264412
 20
3723.307271171711
 30
0.0
 10
1165.747513931896
 20
3722.867576112839
 30
0.0
 10
1165.541239745188
 20
3722.556859752463
 30
0.0
 10
1165.304074192934
 20
3721.981447996649
 30
0.0
 10
1165.231463399503
 20
3721.61467330641
 30
0.0
 10
1165.231463399503
 20
3721.303095778246
 30
0.0
  0
LINE
  5
1EE
330
6C
100
AcDbEntity
  8
Widoczne (ISO)
100
AcDbLine
 10
1165.231463399503
 20
3721.303095778246
 30
0.0
 11
1165.231463399503
 21
3718.788257673246
 31
0.0
  0
LINE
  5
1EF
330
6C
100
AcDbEntity
  8
Widoczne (ISO)
100
AcDbLine
 10
1165.231463399503
 20
3718.788257673246
 30
0.0
 11
1170.231463399503
 21
3718.788257673246
 31
0.0
  0
LINE
  5
1F0
330
6C
100
AcDbEntity
  8
Widoczne (ISO)
100
AcDbLine
 10
1170.231463399503
 20
3756.137941282303
 30
0.0
 11
1170.231463399503
 21
3751.954505576783
 31
0.0
  0
LINE
  5
1F1
330
6C
100
AcDbEntity
  8
Widoczne (ISO)
100
AcDbLine
 10
1170.231463399503
 20
3751.954505576783
 30
0.0
 11
1165.231463399503
 21
3751.954505576783
 31
0.0
  0
LINE
  5
1F2
330
6C
100
AcDbEntity
  8
Widoczne (ISO)
100
AcDbLine
 10
1165.231463399503
 20
3751.954505576783
 30
0.0
 11
1165.231463399503
 21
3749.439667471783
 31
0.0
  0
SPLINE
  5
1F3
330
6C
100
AcDbEntity
  8
Widoczne (ISO)
100
AcDbSpline
210
0.0
220
0.0
230
1.0
 70
     8
 71
     3
 72
    14
 73
    10
 74
     0
 42
0.0000000001
 43
0.0000000001
 40
0.2228199379095576
 40
0.2228199379095576
 40
0.2228199379095576
 40
0.2228199379095576
 40
0.2789038929791343
 40
0.2789038929791343
 40
0.3348467940115836
 40
0.3348467940115836
 40
0.3905091955287647
 40
0.3905091955287647
 40
0.4458820237024774
 40
0.4458820237024774
 40
0.4458820237024774
 40
0.4458820237024774
 10
1165.231463399503
 20
3749.439667471782
 30
0.0
 10
1165.231463399503
 20
3749.128089943619
 30
0.0
 10
1165.304074192934
 20
3748.76131525338
 30
0.0
 10
1165.541239745188
 20
3748.185903497566
 30
0.0
 10
1165.747513931896
 20
3747.875187137189
 30
0.0
 10
1166.184669264412
 20
3747.435492078318
 30
0.0
 10
1166.492492942106
 20
3747.228255651844
 30
0.0
 10
1167.061889340973
 20
3746.990964805698
 30
0.0
 10
1167.423836576316
 20
3746.918387008794
 30
0.0
 10
1167.731463399503
 20
3746.918387008794
 30
0.0
  0
LINE
  5
1F4
330
6C
100
AcDbEntity
  8
Widoczne (ISO)
100
AcDbLine
 10
1167.731463399502
 20
3746.918387008794
 30
0.0
 11
1211.89813006617
 21
3746.918387008794
 31
0.0
  0
LINE
  5
1F5
330
6C
100
AcDbEntity
  8
Widoczne (ISO)
100
AcDbLine
 10
1211.898130066171
 20
3746.918387008794
 30
0.0
 11
1211.898130066171
 21
3749.187887454385
 31
0.0
  0
LINE
  5
1F6
330
6C
100
AcDbEntity
  8
Widoczne (ISO)
100
AcDbLine
 10
1211.89813006617
 20
3749.187887454385
 30
0.0
 11
1190.231463399503
 21
3749.187887454385
 31
0.0
  0
LINE
  5
1F7
330
6C
100
AcDbEntity
  8
Widoczne (ISO)
100
AcDbLine
 10
1190.231463399503
 20
3749.187887454385
 30
0.0
 11
1190.231463399503
 21
3749.439667471783
 31
0.0
  0
LINE
  5
1F8
330
6C
100
AcDbEntity
  8
Widoczne (ISO)
100
AcDbLine
 10
1190.231463399503
 20
3749.439667471783
 30
0.0
 11
1176.898130066169
 21
3749.439667471783
 31
0.0
  0
LINE
  5
1F9
330
6C
100
AcDbEntity
  8
Widoczne (ISO)
100
AcDbLine
 10
1176.898130066169
 20
3749.439667471783
 30
0.0
 11
1176.898130066169
 21
3756.137941282303
 31
0.0
  0
LINE
  5
1FA
330
6C
100
AcDbEntity
  8
Widoczne (ISO)
100
AcDbLine
 10
1176.898130066169
 20
3756.137941282303
 30
0.0
 11
1170.231463399503
 21
3756.137941282303
 31
0.0
  0
LINE
  5
1FB
330
6C
100
AcDbEntity
  8
Widoczne (ISO)
100
AcDbLine
 10
1165.231463399503
 20
3749.439667471782
 30
0.0
 11
1165.231463399502
 21
3746.918387008794
 31
0.0
  0
LINE
  5
1FC
330
6C
100
AcDbEntity
  8
Widoczne (ISO)
100
AcDbLine
 10
1165.231463399502
 20
3723.824376241233
 30
0.0
 11
1165.231463399503
 21
3721.303095778245
 31
0.0
  0
LINE
  5
1FD
330
6C
100
AcDbEntity
  8
Widoczne (ISO)
100
AcDbLine
 10
1261.064796732836
 20
3726.357503436369
 30
0.0
 11
1245.064796732836
 21
3726.357503436369
 31
0.0
  0
LINE
  5
1FE
330
6C
100
AcDbEntity
  8
Widoczne (ISO)
100
AcDbLine
 10
1245.064796732836
 20
3726.357503436369
 30
0.0
 11
1245.064796732836
 21
3728.704714958347
 31
0.0
  0
LINE
  5
1FF
330
6C
100
AcDbEntity
  8
Widoczne (ISO)
100
AcDbLine
 10
1230.231463399502
 20
3728.704714958348
 30
0.0
 11
1230.231463399502
 21
3724.245523356011
 31
0.0
  0
LINE
  5
200
330
6C
100
AcDbEntity
  8
Widoczne (ISO)
100
AcDbLine
 10
1230.231463399502
 20
3724.245523356011
 30
0.0
 11
1241.064796732836
 21
3724.245523356011
 31
0.0
  0
LINE
  5
201
330
6C
100
AcDbEntity
  8
Widoczne (ISO)
100
AcDbLine
 10
1241.064796732836
 20
3724.245523356011
 30
0.0
 11
1241.064796732836
 21
3721.303095778245
 31
0.0
  0
LINE
  5
202
330
6C
100
AcDbEntity
  8
Widoczne (ISO)
100
AcDbLine
 10
1241.064796732836
 20
3721.303095778245
 30
0.0
 11
1254.39813006617
 21
3721.303095778245
 31
0.0
  0
LINE
  5
203
330
6C
100
AcDbEntity
  8
Widoczne (ISO)
100
AcDbLine
 10
1254.39813006617
 20
3721.303095778245
 30
0.0
 11
1254.39813006617
 21
3715.440947053185
 31
0.0
  0
LINE
  5
204
330
6C
100
AcDbEntity
  8
Widoczne (ISO)
100
AcDbLine
 10
1254.39813006617
 20
3715.440947053185
 30
0.0
 11
1261.064796732836
 21
3715.440947053185
 31
0.0
  0
LINE
  5
205
330
6C
100
AcDbEntity
  8
Widoczne (ISO)
100
AcDbLine
 10
1261.064796732836
 20
3715.440947053185
 30
0.0
 11
1261.064796732836
 21
3726.357503436369
 31
0.0
  0
LINE
  5
206
330
6C
100
AcDbEntity
  8
Widoczne (ISO)
100
AcDbLine
 10
1245.064796732836
 20
3744.385259813661
 30
0.0
 11
1261.064796732836
 21
3744.385259813661
 31
0.0
  0
LINE
  5
207
330
6C
100
AcDbEntity
  8
Widoczne (ISO)
100
AcDbLine
 10
1261.064796732836
 20
3744.385259813661
 30
0.0
 11
1261.064796732836
 21
3755.301816196844
 31
0.0
  0
LINE
  5
208
330
6C
100
AcDbEntity
  8
Widoczne (ISO)
100
AcDbLine
 10
1261.064796732836
 20
3755.301816196844
 30
0.0
 11
1254.398130066169
 21
3755.301816196844
 31
0.0
  0
LINE
  5
209
330
6C
100
AcDbEntity
  8
Widoczne (ISO)
100
AcDbLine
 10
1254.398130066169
 20
3755.301816196844
 30
0.0
 11
1254.39813006617
 21
3749.439667471785
 31
0.0
  0
LINE
  5
20A
330
6C
100
AcDbEntity
  8
Widoczne (ISO)
100
AcDbLine
 10
1254.39813006617
 20
3749.439667471785
 30
0.0
 11
1241.064796732836
 21
3749.439667471785
 31
0.0
  0
LINE
  5
20B
330
6C
100
AcDbEntity
  8
Widoczne (ISO)
100
AcDbLine
 10
1241.064796732836
 20
3749.439667471785
 30
0.0
 11
1241.064796732836
 21
3746.497239894019
 31
0.0
  0
LINE
  5
20C
330
6C
100
AcDbEntity
  8
Widoczne (ISO)
100
AcDbLine
 10
1241.064796732836
 20
3746.497239894019
 30
0.0
 11
1230.231463399502
 21
3746.497239894019
 31
0.0
  0
LINE
  5
20D
330
6C
100
AcDbEntity
  8
Widoczne (ISO)
100
AcDbLine
 10
1230.231463399502
 20
3746.497239894019
 30
0.0
 11
1230.231463399502
 21
3742.038048291681
 31
0.0
  0
LINE
  5
20E
330
6C
100
AcDbEntity
  8
Widoczne (ISO)
100
AcDbLine
 10
1245.064796732836
 20
3742.038048291681
 30
0.0
 11
1245.064796732836
 21
3744.385259813661
 31
0.0
  0
SPLINE
  5
20F
330
6C
100
AcDbEntity
  8
Widoczne (ISO)
100
AcDbSpline
210
0.0
220
0.0
230
1.0
 70
    12
 71
     2
 72
     6
 73
     3
 74
     0
 42
0.0000000001
 43
0.0000000001
 40
0.0
 40
0.0
 40
0.0
 40
0.1420627856630313
 40
0.1420627856630313
 40
0.1420627856630313
 10
1160.231463399503
 20
3746.918387008796
 30
0.0
 41
1.0
 10
1161.008230992684
 20
3747.703204222083
 30
0.0
 41
1.002270337972158
 10
1161.898130066169
 20
3748.600138180327
 30
0.0
 41
1.0
  0
LINE
  5
210
330
6C
100
AcDbEntity
  8
Widoczne (ISO)
100
AcDbLine
 10
1161.898130066169
 20
3748.600138180327
 30
0.0
 11
1161.898130066169
 21
3751.379192218597
 31
0.0
  0
ARC
  5
211
330
6C
100
AcDbEntity
  8
Widoczne (ISO)
100
AcDbCircle
 10
1148.564796732836
 20
3735.371381625015
 30
0.0
 40
20.83333333333338
100
AcDbArc
 50
50.20818050044303
 51
146.3404970222317
  0
LINE
  5
212
330
6C
100
AcDbEntity
  8
Widoczne (ISO)
100
AcDbLine
 10
1131.224253360658
 20
3746.918387008896
 30
0.0
 11
1160.231463399503
 21
3746.918387008796
 31
0.0
  0
SPLINE
  5
213
330
6C
100
AcDbEntity
  8
Widoczne (ISO)
100
AcDbSpline
210
0.0
220
0.0
230
1.0
 70
    12
 71
     2
 72
     6
 73
     3
 74
     0
 42
0.0000000001
 43
0.0000000001
 40
0.0
 40
0.0
 40
0.0
 40
0.1420627856630327
 40
0.1420627856630327
 40
0.1420627856630327
 10
1161.898130066169
 20
3722.142625069702
 30
0.0
 41
1.0
 10
1161.008230992698
 20
3723.039559027931
 30
0.0
 41
1.002270337896302
 10
1160.231463399503
 20
3723.824376241234
 30
0.0
 41
1.0
  0
LINE
  5
214
330
6C
100
AcDbEntity
  8
Widoczne (ISO)
100
AcDbLine
 10
1160.231463399503
 20
3723.824376241234
 30
0.0
 11
1131.224253360658
 21
3723.824376241134
 31
0.0
  0
ARC
  5
215
330
6C
100
AcDbEntity
  8
Widoczne (ISO)
100
AcDbCircle
 10
1148.564796732836
 20
3735.371381625015
 30
0.0
 40
20.83333333333336
100
AcDbArc
 50
213.6595029777687
 51
309.7918194995569
  0
LINE
  5
216
330
6C
100
AcDbEntity
  8
Widoczne (ISO)
100
AcDbLine
 10
1161.898130066169
 20
3719.363571031433
 30
0.0
 11
1161.89813006617
 21
3722.142625069702
 31
0.0
  0
SPLINE
  5
217
330
6C
100
AcDbEntity
  8
Widoczne (ISO)
100
AcDbSpline
210
0.0
220
0.0
230
1.0
 70
     8
 71
     3
 72
     8
 73
     4
 74
     0
 42
0.0000000001
 43
0.0000000001
 40
0.0989617208017839
 40
0.0989617208017839
 40
0.0989617208017839
 40
0.0989617208017839
 40
0.2598830879614653
 40
0.2598830879614653
 40
0.2598830879614653
 40
0.2598830879614653
 10
1131.224253360658
 20
3723.824376241134
 30
0.0
 10
1131.137104587836
 20
3723.955250612861
 30
0.0
 10
1130.977345506222
 20
3724.19671263774
 30
0.0
 10
1130.769638752173
 20
3724.538073503704
 30
0.0
  0
SPLINE
  5
218
330
6C
100
AcDbEntity
  8
Widoczne (ISO)
100
AcDbSpline
210
0.0
220
0.0
230
1.0
 70
     8
 71
     3
 72
     8
 73
     4
 74
     0
 42
0.0000000001
 43
0.0000000001
 40
1.905913792832291
 40
1.905913792832291
 40
1.905913792832291
 40
1.905913792832291
 40
2.06683515999194
 40
2.06683515999194
 40
2.06683515999194
 40
2.06683515999194
 10
1130.769638752173
 20
3746.204689746325
 30
0.0
 10
1130.977345506222
 20
3746.546050612289
 30
0.0
 10
1131.137104587836
 20
3746.787512637168
 30
0.0
 10
1131.224253360658
 20
3746.918387008896
 30
0.0
  0
LINE
  5
219
330
6C
100
AcDbEntity
  8
Widoczne (ISO)
100
AcDbLine
 10
1161.898130066169
 20
3722.142625069702
 30
0.0
 11
1161.898130066169
 21
3723.824376241234
 31
0.0
  0
LINE
  5
21A
330
6C
100
AcDbEntity
  8
Widoczne (ISO)
100
AcDbLine
 10
1161.898130066169
 20
3746.918387008796
 30
0.0
 11
1161.898130066169
 21
3748.600138180327
 31
0.0
  0
LINE
  5
21B
330
6C
100
AcDbEntity
  8
Widoczne (ISO)
100
AcDbLine
 10
1141.064796732836
 20
3723.824376241234
 30
0.0
 11
1224.398130066169
 21
3723.824376241233
 31
0.0
  0
LINE
  5
21C
330
6C
100
AcDbEntity
  8
Widoczne (ISO)
100
AcDbLine
 10
1224.398130066169
 20
3723.824376241233
 30
0.0
 11
1224.398130066169
 21
3728.704714958347
 31
0.0
  0
LINE
  5
21D
330
6C
100
AcDbEntity
  8
Widoczne (ISO)
100
AcDbLine
 10
1141.064796732836
 20
3724.538048291681
 30
0.0
 11
1141.064796732836
 21
3723.824376241234
 31
0.0
  0
LINE
  5
21E
330
6C
100
AcDbEntity
  8
Widoczne (ISO)
100
AcDbLine
 10
1224.398130066169
 20
3746.918387008796
 30
0.0
 11
1141.064796732836
 21
3746.918387008796
 31
0.0
  0
LINE
  5
21F
330
6C
100
AcDbEntity
  8
Widoczne (ISO)
100
AcDbLine
 10
1141.064796732836
 20
3746.918387008796
 30
0.0
 11
1141.064796732836
 21
3746.204714958348
 31
0.0
  0
LINE
  5
220
330
6C
100
AcDbEntity
  8
Widoczne (ISO)
100
AcDbLine
 10
1224.398130066169
 20
3742.038048291681
 30
0.0
 11
1224.398130066169
 21
3746.918387008796
 31
0.0
  0
LINE
  5
221
330
6C
100
AcDbEntity
  8
Widoczne (ISO)
100
AcDbLine
 10
1256.453442566171
 20
3728.704714958348
 30
0.0
 11
1256.453442566171
 21
3742.038048291681
 31
0.0
  0
LINE
  5
222
330
6C
100
AcDbEntity
  8
Widoczne (ISO)
100
AcDbLine
 10
1257.731463399505
 20
3740.760027458347
 30
0.0
 11
1257.731463399505
 21
3729.982735791681
 31
0.0
  0
LINE
  5
223
330
6C
100
AcDbEntity
  8
Widoczne (ISO)
100
AcDbLine
 10
1257.731463399505
 20
3729.982735791681
 30
0.0
 11
1256.453442566171
 21
3728.704714958347
 31
0.0
  0
LINE
  5
224
330
6C
100
AcDbEntity
  8
Widoczne (ISO)
100
AcDbLine
 10
1257.731463399505
 20
3740.760027458347
 30
0.0
 11
1256.453442566171
 21
3742.038048291681
 31
0.0
  0
LINE
  5
225
330
6C
100
AcDbEntity
  8
Widoczne (ISO)
100
AcDbLine
 10
1141.064796732836
 20
3724.538048291681
 30
0.0
 11
1141.064796732836
 21
3746.204714958348
 31
0.0
  0
LINE
  5
226
330
6C
100
AcDbEntity
  8
Widoczne (ISO)
100
AcDbLine
 10
1141.231463399503
 20
3742.038048291681
 30
0.0
 11
1256.453442566171
 21
3742.038048291681
 31
0.0
  0
LINE
  5
227
330
6C
100
AcDbEntity
  8
Widoczne (ISO)
100
AcDbLine
 10
1141.231463399503
 20
3728.704714958348
 30
0.0
 11
1256.453442566171
 21
3728.704714958347
 31
0.0
  0
LINE
  5
228
330
6C
100
AcDbEntity
  8
Widoczne (ISO)
100
AcDbLine
 10
1129.064796732836
 20
3746.204714958348
 30
0.0
 11
1141.064796732836
 21
3746.204714958348
 31
0.0
  0
LINE
  5
229
330
6C
100
AcDbEntity
  8
Widoczne (ISO)
100
AcDbLine
 10
1129.064796732836
 20
3724.538048291681
 30
0.0
 11
1141.064796732836
 21
3724.538048291681
 31
0.0
  0
LINE
  5
22A
330
6C
100
AcDbEntity
  8
Widoczne (ISO)
100
AcDbLine
 10
1127.731463399503
 20
3725.871381625014
 30
0.0
 11
1127.731463399503
 21
3744.871381625015
 31
0.0
  0
ARC
  5
22B
330
6C
100
AcDbEntity
  8
Widoczne (ISO)
100
AcDbCircle
 10
1129.064796732836
 20
3725.871381625014
 30
0.0
 40
1.333333333333352
100
AcDbArc
 50
180.0
 51
270.0
  0
ARC
  5
22C
330
6C
100
AcDbEntity
  8
Widoczne (ISO)
100
AcDbCircle
 10
1129.064796732836
 20
3744.871381625015
 30
0.0
 40
1.333333333333352
100
AcDbArc
 50
90.0
 51
180.0
  0
ARC
  5
22D
330
6C
100
AcDbEntity
  8
Widoczne (ISO)
100
AcDbCircle
 10
1141.231463399503
 20
3728.538048291681
 30
0.0
 40
0.1666666666666691
100
AcDbArc
 50
90.0
 51
180.0
  0
ARC
  5
22E
330
6C
100
AcDbEntity
  8
Widoczne (ISO)
100
AcDbCircle
 10
1141.231463399503
 20
3742.204714958348
 30
0.0
 40
0.1666666666666691
100
AcDbArc
 50
180.0
 51
270.0
  0
SPLINE
  5
22F
330
6C
100
AcDbEntity
  8
Widoczne (ISO)
100
AcDbSpline
210
0.0
220
0.0
230
1.0
 70
    11
 71
     3
 72
    43
 73
    39
 74
     0
 42
0.0000000001
 43
0.0000000001
 40
-1.075629206915937
 40
-1.075629206915937
 40
-1.075629206915937
 40
-1.075629206915937
 40
-1.070470126217044
 40
-1.070470126217044
 40
-1.030655975601599
 40
-1.030655975601599
 40
-0.9610925321602447
 40
-0.9610925321602447
 40
-0.8915042434501218
 40
-0.8915042434501218
 40
-0.8223376367676355
 40
-0.8223376367676355
 40
-0.7541563645642667
 40
-0.7541563645642667
 40
-0.6867525498705568
 40
-0.6867525498705568
 40
-0.6192925454485304
 40
-0.6192925454485304
 40
-0.5507808213783719
 40
-0.5507808213783719
 40
-0.4810040026593755
 40
-0.4810040026593755
 40
-0.4109589131828779
 40
-0.4109589131828779
 40
-0.3411431728392879
 40
-0.3411431728392879
 40
-0.2723716544562578
 40
-0.2723716544562578
 40
-0.2044137271122727
 40
-0.2044137271122727
 40
-0.1366996713593845
 40
-0.1366996713593845
 40
-0.0686754894170337
 40
-0.0686754894170337
 40
0.0
 40
0.0
 40
0.0
 40
0.0345791017699495
 40
0.0345791017699495
 40
0.0345791017699495
 40
0.0345791017699495
 10
1197.968844197377
 20
3756.137941282303
 30
0.0
 10
1197.940201902962
 20
3756.137941282303
 30
0.0
 10
1197.911550964034
 20
3756.13752425072
 30
0.0
 10
1197.661796758559
 20
3756.130249773809
 30
0.0
 10
1197.442099447937
 20
3756.098988533369
 30
0.0
 10
1196.853743413337
 20
3755.946892422131
 30
0.0
 10
1196.501873537026
 20
3755.777993551004
 30
0.0
 10
1195.882214204806
 20
3755.315567183116
 30
0.0
 10
1195.620045369303
 20
3755.026167154478
 30
0.0
 10
1195.222357721317
 20
3754.365719373754
 30
0.0
 10
1195.08964527438
 20
3754.001084696896
 30
0.0
 10
1194.972490433119
 20
3753.247145405886
 30
0.0
 10
1194.987049852327
 20
3752.865150015797
 30
0.0
 10
1195.161018431348
 20
3752.132474408706
 30
0.0
 10
1195.317106023119
 20
3751.78859429898
 30
0.0
 10
1195.752938476193
 20
3751.179485060255
 30
0.0
 10
1196.028228408394
 20
3750.920694000031
 30
0.0
 10
1196.66813338615
 20
3750.519645264243
 30
0.0
 10
1197.027165569598
 20
3750.383574192705
 30
0.0
 10
1197.784567007305
 20
3750.255094892551
 30
0.0
 10
1198.175946601219
 20
3750.266653399065
 30
0.0
 10
1198.933546640485
 20
3750.438766051117
 30
0.0
 10
1199.293026287973
 20
3750.598375438459
 30
0.0
 10
1199.929465463776
 20
3751.044450801837
 30
0.0
 10
1200.20130996564
 20
3751.326727972204
 30
0.0
 10
1200.617914919169
 20
3751.974364066188
 30
0.0
 10
1200.76075410756
 20
3752.332585562589
 30
0.0
 10
1200.899835725359
 20
3753.079327913369
 30
0.0
 10
1200.89641557911
 20
3753.460155055797
 30
0.0
 10
1200.743582478027
 20
3754.198068011143
 30
0.0
 10
1200.596229170241
 20
3754.547731960369
 30
0.0
 10
1200.174408097347
 20
3755.172578812242
 30
0.0
 10
1199.903668302051
 20
3755.441036469346
 30
0.0
 10
1199.271254858456
 20
3755.8612763456
 30
0.0
 10
1198.915105251137
 20
3756.007703805394
 30
0.0
 10
1198.540851841353
 20
3756.081865151287
 30
0.0
 10
1198.352409838908
 20
3756.119206461101
 30
0.0
 10
1198.160821193145
 20
3756.137941282303
 30
0.0
 10
1197.968844197377
 20
3756.137941282303
 30
0.0
  0
SPLINE
  5
230
330
6C
100
AcDbEntity
  8
Widoczne (ISO)
100
AcDbSpline
210
0.0
220
0.0
230
1.0
 70
    11
 71
     3
 72
    43
 73
    39
 74
     0
 42
0.0000000001
 43
0.0000000001
 40
-1.03320968708186
 40
-1.03320968708186
 40
-1.03320968708186
 40
-1.03320968708186
 40
-1.030764545837492
 40
-1.030764545837492
 40
-0.9614030713568167
 40
-0.9614030713568167
 40
-0.8917686056149026
 40
-0.8917686056149026
 40
-0.8223043196082244
 40
-0.8223043196082244
 40
-0.753475357158497
 40
-0.753475357158497
 40
-0.6854860074655571
 40
-0.6854860074655571
 40
-0.6180068381569351
 40
-0.6180068381569351
 40
-0.5502206963001992
 40
-0.5502206963001992
 40
-0.4814034137132413
 40
-0.4814034137132413
 40
-0.4116358499456981
 40
-0.4116358499456981
 40
-0.3417369039027671
 40
-0.3417369039027671
 40
-0.2724574080092521
 40
-0.2724574080092521
 40
-0.2039861021718044
 40
-0.2039861021718044
 40
-0.1360460155306716
 40
-0.1360460155306716
 40
-0.0681850450537838
 40
-0.0681850450537838
 40
0.0
 40
0.0
 40
0.0
 40
0.038907066571575
 40
0.038907066571575
 40
0.0753994008435088
 40
0.0753994008435088
 40
0.0753994008435088
 40
0.0753994008435088
 10
1191.303301598165
 20
3714.604821967725
 30
0.0
 10
1191.316881622506
 20
3714.604821967725
 30
0.0
 10
1191.33046393322
 20
3714.604916134633
 30
0.0
 10
1191.729374872642
 20
3714.610448855317
 30
0.0
 10
1192.109958991727
 20
3714.691527667751
 30
0.0
 10
1192.819993971869
 20
3714.995461050373
 30
0.0
 10
1193.142569168936
 20
3715.21601283796
 30
0.0
 10
1193.684247515576
 20
3715.76742619689
 30
0.0
 10
1193.898657949674
 20
3716.092984388257
 30
0.0
 10
1194.189198347782
 20
3716.804379998311
 30
0.0
 10
1194.263944238559
 20
3717.183214751335
 30
0.0
 10
1194.2639954915
 20
3717.943339649661
 30
0.0
 10
1194.191097058479
 20
3718.317520126235
 30
0.0
 10
1193.906938536781
 20
3719.014316866542
 30
0.0
 10
1193.699487786271
 20
3719.330474272176
 30
0.0
 10
1193.173459333501
 20
3719.866959652958
 30
0.0
 10
1192.859875310791
 20
3720.081246014852
 30
0.0
 10
1192.162304799067
 20
3720.379996161489
 30
0.0
 10
1191.784686833874
 20
3720.459298581786
 30
0.0
 10
1191.01475096491
 20
3720.468839099056
 30
0.0
 10
1190.629816026174
 20
3720.396926253593
 30
0.0
 10
1189.908780077685
 20
3720.109716250007
 30
0.0
 10
1189.579143625846
 20
3719.896692620111
 30
0.0
 10
1189.022866975014
 20
3719.359286551955
 30
0.0
 10
1188.800182865857
 20
3719.040586356776
 30
0.0
 10
1188.491446788344
 20
3718.340147486215
 30
0.0
 10
1188.406690681239
 20
3717.965652166804
 30
0.0
 10
1188.385781013204
 20
3717.208048932184
 30
0.0
 10
1188.448700952864
 20
3716.832450235804
 30
0.0
 10
1188.715175128211
 20
3716.126678615198
 30
0.0
 10
1188.915897959925
 20
3715.803555431003
 30
0.0
 10
1189.431476175125
 20
3715.250988652637
 30
0.0
 10
1189.74167571779
 20
3715.027561602612
 30
0.0
 10
1190.086083823435
 20
3714.869837491219
 30
0.0
 10
1190.282606522563
 20
3714.779838540613
 30
0.0
 10
1190.488537124941
 20
3714.712023683358
 30
0.0
 10
1190.898462672688
 20
3714.625796555896
 30
0.0
 10
1191.100627503654
 20
3714.604821967725
 30
0.0
 10
1191.303301598165
 20
3714.604821967725
 30
0.0
  0
SPLINE
  5
231
330
6C
100
AcDbEntity
  8
Widoczne (ISO)
100
AcDbSpline
210
0.0
220
0.0
230
1.0
 70
    11
 71
     3
 72
    43
 73
    39
 74
     0
 42
0.0000000001
 43
0.0000000001
 40
-0.0386041792388973
 40
-0.0386041792388973
 40
-0.0386041792388973
 40
-0.0386041792388973
 40
0.0
 40
0.0
 40
0.0
 40
0.038888227320897
 40
0.038888227320897
 40
0.0778410005272086
 40
0.0778410005272086
 40
0.146993662002875
 40
0.146993662002875
 40
0.2160223383325817
 40
0.2160223383325817
 40
0.2846467383480162
 40
0.2846467383480162
 40
0.3528377581320756
 40
0.3528377581320756
 40
0.4207645561956053
 40
0.4207645561956053
 40
0.4886876564007517
 40
0.4886876564007517
 40
0.5568590987997268
 40
0.5568590987997268
 40
0.6254339302434568
 40
0.6254339302434568
 40
0.6943979834717126
 40
0.6943979834717126
 40
0.7635225142950263
 40
0.7635225142950263
 40
0.8324164811289874
 40
0.8324164811289874
 40
0.9007411134994134
 40
0.9007411134994134
 40
0.9685112373538963
 40
0.9685112373538963
 40
1.036175277994618
 40
1.036175277994618
 40
1.065682287471541
 40
1.065682287471541
 40
1.065682287471541
 40
1.065682287471541
 10
1247.615366093604
 20
3720.464261775024
 30
0.0
 10
1247.401972450551
 20
3720.464261775024
 30
0.0
 10
1247.188725024165
 20
3720.440594686225
 30
0.0
 10
1246.979498168347
 20
3720.393472493614
 30
0.0
 10
1246.768731829286
 20
3720.346003577703
 30
0.0
 10
1246.563928566244
 20
3720.275157191883
 30
0.0
 10
1246.173355304689
 20
3720.089483396728
 30
0.0
 10
1245.988807170768
 20
3719.975149649714
 30
0.0
 10
1245.516113471633
 20
3719.604603528965
 30
0.0
 10
1245.262899841397
 20
3719.310516934445
 30
0.0
 10
1244.883555638483
 20
3718.642979459543
 30
0.0
 10
1244.7606020493
 20
3718.275661872059
 30
0.0
 10
1244.662487537104
 20
3717.517127713487
 30
0.0
 10
1244.687365605241
 20
3717.13301396261
 30
0.0
 10
1244.88238452587
 20
3716.398331978857
 30
0.0
 10
1245.049760600273
 20
3716.054561367445
 30
0.0
 10
1245.50625616751
 20
3715.451739628623
 30
0.0
 10
1245.790448580358
 20
3715.198264490449
 30
0.0
 10
1246.440297771507
 20
3714.814658200138
 30
0.0
 10
1246.799526529389
 20
3714.688319732019
 30
0.0
 10
1247.547777845032
 20
3714.580418818824
 30
0.0
 10
1247.929484242317
 20
3714.60045012758
 30
0.0
 10
1248.666059717077
 20
3714.786354571393
 30
0.0
 10
1249.013498246652
 20
3714.951246861
 30
0.0
 10
1249.627464440957
 20
3715.406216519418
 30
0.0
 10
1249.88758796312
 20
3715.692590574582
 30
0.0
 10
1250.284011048925
 20
3716.349550873828
 30
0.0
 10
1250.416305968387
 20
3716.714171064296
 30
0.0
 10
1250.533702964259
 20
3717.472062405601
 30
0.0
 10
1250.518225902475
 20
3717.858335256662
 30
0.0
 10
1250.341093496778
 20
3718.599902100655
 30
0.0
 10
1250.182246956236
 20
3718.948695657985
 30
0.0
 10
1249.741677508359
 20
3719.563158062974
 30
0.0
 10
1249.465111189269
 20
3719.823670076363
 30
0.0
 10
1248.827834685806
 20
3720.223545594133
 30
0.0
 10
1248.4736662063
 20
3720.359065087841
 30
0.0
 10
1247.941665330057
 20
3720.450435944438
 30
0.0
 10
1247.778472999956
 20
3720.464261775024
 30
0.0
 10
1247.615366093604
 20
3720.464261775024
 30
0.0
  0
SPLINE
  5
232
330
6C
100
AcDbEntity
  8
Widoczne (ISO)
100
AcDbSpline
210
0.0
220
0.0
230
1.0
 70
    11
 71
     3
 72
    43
 73
    39
 74
     0
 42
0.0000000001
 43
0.0000000001
 40
-1.036599829817685
 40
-1.036599829817685
 40
-1.036599829817685
 40
-1.036599829817685
 40
-1.027571042535688
 40
-1.027571042535688
 40
-0.9591489321064409
 40
-0.9591489321064409
 40
-0.8900354342018948
 40
-0.8900354342018948
 40
-0.8207444352232078
 40
-0.8207444352232078
 40
-0.7517787295121169
 40
-0.7517787295121169
 40
-0.683339323540841
 40
-0.683339323540841
 40
-0.6153351578860261
 40
-0.6153351578860261
 40
-0.5475127743889616
 40
-0.5475127743889616
 40
-0.4795801559340373
 40
-0.4795801559340373
 40
-0.4113002416989776
 40
-0.4113002416989776
 40
-0.3425667417276672
 40
-0.3425667417276672
 40
-0.2734698965437007
 40
-0.2734698965437007
 40
-0.2043247000064844
 40
-0.2043247000064844
 40
-0.1355763758694433
 40
-0.1355763758694433
 40
-0.0675238009348258
 40
-0.0675238009348258
 40
0.0
 40
0.0
 40
0.0
 40
0.0382859158958298
 40
0.0382859158958298
 40
0.067570288526611
 40
0.067570288526611
 40
0.067570288526611
 40
0.067570288526611
 10
1250.340533548713
 20
3750.278501475003
 30
0.0
 10
1250.390635447305
 20
3750.278501475003
 30
0.0
 10
1250.440757762608
 20
3750.279805888895
 30
0.0
 10
1250.87046489414
 20
3750.302200274717
 30
0.0
 10
1251.242362276511
 20
3750.396672734745
 30
0.0
 10
1251.932721597844
 20
3750.724384978145
 30
0.0
 10
1252.243949318905
 20
3750.955843618416
 30
0.0
 10
1252.760825444613
 20
3751.525394137565
 30
0.0
 10
1252.961497680579
 20
3751.858568877787
 30
0.0
 10
1253.223158266288
 20
3752.580982180577
 30
0.0
 10
1253.282430172586
 20
3752.963413066995
 30
0.0
 10
1253.251051815383
 20
3753.726330626741
 30
0.0
 10
1253.161829226177
 20
3754.099689768191
 30
0.0
 10
1252.846077820678
 20
3754.788936446074
 30
0.0
 10
1252.623459620314
 20
3755.098524546403
 30
0.0
 10
1252.072545181432
 20
3755.614227365341
 30
0.0
 10
1251.749938570312
 20
3755.815542827845
 30
0.0
 10
1251.044899434061
 20
3756.083373885888
 30
0.0
 10
1250.669346486144
 20
3756.147019774709
 30
0.0
 10
1249.912848798437
 20
3756.126725844342
 30
0.0
 10
1249.539366082295
 20
3756.042239851402
 30
0.0
 10
1248.84331670229
 20
3755.733881255038
 30
0.0
 10
1248.527910586051
 20
3755.512113324992
 30
0.0
 10
1247.998315488771
 20
3754.95879254219
 30
0.0
 10
1247.789728185772
 20
3754.631959427561
 30
0.0
 10
1247.509378601615
 20
3753.916675772387
 30
0.0
 10
1247.440308821921
 20
3753.534807357286
 30
0.0
 10
1247.452309900487
 20
3752.768594130146
 30
0.0
 10
1247.532414824343
 20
3752.391226195517
 30
0.0
 10
1247.831180826085
 20
3751.692251626553
 30
0.0
 10
1248.045695578239
 20
3751.376547685911
 30
0.0
 10
1248.581688256902
 20
3750.847309580605
 30
0.0
 10
1248.897142898864
 20
3750.638131907115
 30
0.0
 10
1249.244022073318
 20
3750.495306746952
 30
0.0
 10
1249.440702158197
 20
3750.414325048734
 30
0.0
 10
1249.645706978124
 20
3750.355408804452
 30
0.0
 10
1250.015742852127
 20
3750.292223856197
 30
0.0
 10
1250.178030809192
 20
3750.278501475003
 30
0.0
 10
1250.340533548713
 20
3750.278501475003
 30
0.0
  0
SPLINE
  5
233
330
6C
100
AcDbEntity
  8
Widoczne (ISO)
100
AcDbSpline
210
0.0
220
0.0
230
1.0
 70
    11
 71
     3
 72
    43
 73
    39
 74
     0
 42
0.0000000001
 43
0.0000000001
 40
-0.0625388455944913
 40
-0.0625388455944913
 40
-0.0625388455944913
 40
-0.0625388455944913
 40
0.0
 40
0.0
 40
0.0
 40
0.0399407798351661
 40
0.0399407798351661
 40
0.0799014392165913
 40
0.0799014392165913
 40
0.1494622844634608
 40
0.1494622844634608
 40
0.2182594750863372
 40
0.2182594750863372
 40
0.2860757039327084
 40
0.2860757039327084
 40
0.3533860114549658
 40
0.3533860114549658
 40
0.4211804653419377
 40
0.4211804653419377
 40
0.4902710057371009
 40
0.4902710057371009
 40
0.560203655585056
 40
0.560203655585056
 40
0.6302722564457639
 40
0.6302722564457639
 40
0.6996953281395096
 40
0.6996953281395096
 40
0.7680981683425986
 40
0.7680981683425986
 40
0.8358987405972612
 40
0.8358987405972612
 40
0.9036935069545016
 40
0.9036935069545016
 40
0.9719680097631417
 40
0.9719680097631417
 40
1.040952042457264
 40
1.040952042457264
 40
1.047869858993481
 40
1.047869858993481
 40
1.047869858993481
 40
1.047869858993481
 10
1235.45553315141
 20
3714.604821967725
 30
0.0
 10
1235.802334630864
 20
3714.604821967725
 30
0.0
 10
1236.146817298941
 20
3714.665958127667
 30
0.0
 10
1236.47313001596
 20
3714.785261087198
 30
0.0
 10
1236.681531438531
 20
3714.861454582536
 30
0.0
 10
1236.88078239423
 20
3714.960736253046
 30
0.0
 10
1237.253615744601
 20
3715.201662060784
 30
0.0
 10
1237.426078949653
 20
3715.342612363002
 30
0.0
 10
1237.851469111712
 20
3715.777661957489
 30
0.0
 10
1238.065559357342
 20
3716.103969052043
 30
0.0
 10
1238.354957459764
 20
3716.815979774263
 30
0.0
 10
1238.429153538215
 20
3717.194601216247
 30
0.0
 10
1238.428049879666
 20
3717.95332933609
 30
0.0
 10
1238.354857559297
 20
3718.326269861183
 30
0.0
 10
1238.070399592596
 20
3719.020600289589
 30
0.0
 10
1237.862996336652
 20
3719.335407468487
 30
0.0
 10
1237.336763532307
 20
3719.870086470406
 30
0.0
 10
1237.022774125168
 20
3720.083553660302
 30
0.0
 10
1236.323355714429
 20
3720.381394325423
 30
0.0
 10
1235.944106873511
 20
3720.460080396846
 30
0.0
 10
1235.171912636756
 20
3720.468167742361
 30
0.0
 10
1234.78616409853
 20
3720.395678257524
 30
0.0
 10
1234.063590794585
 20
3720.107811107701
 30
0.0
 10
1233.732992168014
 20
3719.894597905317
 30
0.0
 10
1233.174917163488
 20
3719.356857169082
 30
0.0
 10
1232.951307256802
 20
3719.037990365662
 30
0.0
 10
1232.64159966733
 20
3718.337805304228
 30
0.0
 10
1232.55643305613
 20
3717.964003008795
 30
0.0
 10
1232.534721418341
 20
3717.207868769786
 30
0.0
 10
1232.597111428435
 20
3716.833181846014
 30
0.0
 10
1232.862467110395
 20
3716.128528848427
 30
0.0
 10
1233.062726089801
 20
3715.805754035506
 30
0.0
 10
1233.57784928572
 20
3715.25297321428
 30
0.0
 10
1233.888275205605
 20
3715.029244354089
 30
0.0
 10
1234.58119330879
 20
3714.711512556422
 30
0.0
 10
1234.957489388899
 20
3714.622031573066
 30
0.0
 10
1235.378780976314
 20
3714.605570047378
 30
0.0
 10
1235.417171250314
 20
3714.604821967725
 30
0.0
 10
1235.45553315141
 20
3714.604821967725
 30
0.0
  0
SPLINE
  5
234
330
6C
100
AcDbEntity
  8
Widoczne (ISO)
100
AcDbSpline
210
0.0
220
0.0
230
1.0
 70
    11
 71
     3
 72
    43
 73
    39
 74
     0
 42
0.0000000001
 43
0.0000000001
 40
-1.081401690384469
 40
-1.081401690384469
 40
-1.081401690384469
 40
-1.081401690384469
 40
-1.069327661905245
 40
-1.069327661905245
 40
-1.029948699342968
 40
-1.029948699342968
 40
-0.9600048144000657
 40
-0.9600048144000657
 40
-0.8906049593303634
 40
-0.8906049593303634
 40
-0.822014148650385
 40
-0.822014148650385
 40
-0.7540082822496798
 40
-0.7540082822496798
 40
-0.6861532072463435
 40
-0.6861532072463435
 40
-0.6180334692087886
 40
-0.6180334692087886
 40
-0.5493865286697281
 40
-0.5493865286697281
 40
-0.4801670450087754
 40
-0.4801670450087754
 40
-0.4105660491245635
 40
-0.4105660491245635
 40
-0.3409831193460179
 40
-0.3409831193460179
 40
-0.2719057478878646
 40
-0.2719057478878646
 40
-0.2036594019378135
 40
-0.2036594019378135
 40
-0.1360938214684171
 40
-0.1360938214684171
 40
-0.0684909596265141
 40
-0.0684909596265141
 40
0.0
 40
0.0
 40
0.0
 40
0.0273165621149392
 40
0.0273165621149392
 40
0.0273165621149392
 40
0.0273165621149392
 10
1242.308202725805
 20
3750.278501475003
 30
0.0
 10
1242.37519427458
 20
3750.278501475003
 30
0.0
 10
1242.442211124755
 20
3750.280790771995
 30
0.0
 10
1242.727404709911
 20
3750.300294567602
 30
0.0
 10
1242.943373865318
 20
3750.339463188052
 30
0.0
 10
1243.525467302687
 20
3750.512936297942
 30
0.0
 10
1243.872877807756
 20
3750.695942310383
 30
0.0
 10
1244.475326105213
 20
3751.182286527924
 30
0.0
 10
1244.725855787985
 20
3751.480475387633
 30
0.0
 10
1245.096333618397
 20
3752.151718588513
 30
0.0
 10
1245.214404423489
 20
3752.517774541873
 30
0.0
 10
1245.303185887285
 20
3753.271391982363
 30
0.0
 10
1245.274269751885
 20
3753.65145138249
 30
0.0
 10
1245.072334408232
 20
3754.378561753507
 30
0.0
 10
1244.901645391081
 20
3754.718389878441
 30
0.0
 10
1244.438337835399
 20
3755.314805951967
 30
0.0
 10
1244.149922797866
 20
3755.565044298326
 30
0.0
 10
1243.490578981108
 20
3755.942364208054
 30
0.0
 10
1243.125628735756
 20
3756.064715770019
 30
0.0
 10
1242.36607591396
 20
3756.163047960483
 30
0.0
 10
1241.978695767258
 20
3756.136849719099
 30
0.0
 10
1241.233744321339
 20
3755.936939389076
 30
0.0
 10
1240.883433949093
 20
3755.76432477577
 30
0.0
 10
1240.268892483067
 20
3755.294767769725
 30
0.0
 10
1240.010297872695
 20
3755.002181384255
 30
0.0
 10
1239.621339051838
 20
3754.337093755725
 30
0.0
 10
1239.493570269323
 20
3753.971191276453
 30
0.0
 10
1239.386101830149
 20
3753.215848382111
 30
0.0
 10
1239.405631228317
 20
3752.833624900441
 30
0.0
 10
1239.589134499822
 20
3752.101857243614
 30
0.0
 10
1239.749929488164
 20
3751.759014997007
 30
0.0
 10
1240.194257166925
 20
3751.153833501196
 30
0.0
 10
1240.47331483914
 20
3750.897735608822
 30
0.0
 10
1241.118744394703
 20
3750.504173306242
 30
0.0
 10
1241.479338053717
 20
3750.372487825276
 30
0.0
 10
1241.855270793638
 20
3750.313675563186
 30
0.0
 10
1242.005205764575
 20
3750.290219200197
 30
0.0
 10
1242.15663949184
 20
3750.278501475003
 30
0.0
 10
1242.308202725805
 20
3750.278501475003
 30
0.0
  0
SPLINE
  5
235
330
6C
100
AcDbEntity
  8
Widoczne (ISO)
100
AcDbSpline
210
0.0
220
0.0
230
1.0
 70
     8
 71
     3
 72
    27
 73
    23
 74
     0
 42
0.0000000001
 43
0.0000000001
 40
-0.0671339948039678
 40
-0.0671339948039678
 40
-0.0671339948039678
 40
-0.0671339948039678
 40
0.0
 40
0.0
 40
0.0
 40
0.0390793084959793
 40
0.0390793084959793
 40
0.0782219618183922
 40
0.0782219618183922
 40
0.1475293975752926
 40
0.1475293975752926
 40
0.2165170647265644
 40
0.2165170647265644
 40
0.2849786654957439
 40
0.2849786654957439
 40
0.353001574861156
 40
0.353001574861156
 40
0.420837795501627
 40
0.420837795501627
 40
0.4887795704281958
 40
0.4887795704281958
 40
0.5425951474895139
 40
0.5425951474895139
 40
0.5425951474895139
 40
0.5425951474895139
 10
1253.490973104709
 20
3720.464261775024
 30
0.0
 10
1253.11817777157
 20
3720.464261775024
 30
0.0
 10
1252.748954290576
 20
3720.39205159453
 30
0.0
 10
1252.403193802406
 20
3720.252216699988
 30
0.0
 10
1252.201923479935
 20
3720.170817537042
 30
0.0
 10
1252.010350072702
 20
3720.067210988997
 30
0.0
 10
1251.653272298836
 20
3719.819515035729
 30
0.0
 10
1251.488870493743
 20
3719.676096316344
 30
0.0
 10
1251.081203472767
 20
3719.23241397519
 30
0.0
 10
1250.878482208518
 20
3718.900470277498
 30
0.0
 10
1250.612366225162
 20
3718.179631047752
 30
0.0
 10
1250.550740425559
 20
3717.797526366928
 30
0.0
 10
1250.577435700257
 20
3717.034341332091
 30
0.0
 10
1250.664373641335
 20
3716.660393745514
 30
0.0
 10
1250.975915430314
 20
3715.969150902183
 30
0.0
 10
1251.196641628594
 20
3715.658174168688
 30
0.0
 10
1251.744396911617
 20
3715.139069479847
 30
0.0
 10
1252.065759194715
 20
3714.9357677159
 30
0.0
 10
1252.769118033079
 20
3714.663604931509
 30
0.0
 10
1253.144249278305
 20
3714.597646619335
 30
0.0
 10
1253.820435985597
 20
3714.611613315236
 30
0.0
 10
1254.116030368935
 20
3714.663955746254
 30
0.0
 10
1254.398116697128
 20
3714.760023395286
 30
0.0
  0
SPLINE
  5
236
330
6C
100
AcDbEntity
  8
Widoczne (ISO)
100
AcDbSpline
210
0.0
220
0.0
230
1.0
 70
     8
 71
     3
 72
    10
 73
     6
 74
     0
 42
0.0000000001
 43
0.0000000001
 40
-0.1227181804468376
 40
-0.1227181804468376
 40
-0.1227181804468376
 40
-0.1227181804468376
 40
-0.0683061815779889
 40
-0.0683061815779889
 40
-0.0671339948039678
 40
-0.0671339948039678
 40
-0.0671339948039678
 40
-0.0671339948039678
 10
1254.398116697128
 20
3720.317762169968
 30
0.0
 10
1254.112176183665
 20
3720.412644083948
 30
0.0
 10
1253.812749959268
 20
3720.462150507883
 30
0.0
 10
1253.503992509036
 20
3720.464239758109
 30
0.0
 10
1253.497482262405
 20
3720.464261775024
 30
0.0
 10
1253.490973104709
 20
3720.464261775024
 30
0.0
  0
LINE
  5
237
330
6C
100
AcDbEntity
  8
Widoczne (ISO)
100
AcDbLine
 10
1254.398116697128
 20
3714.760023395286
 30
0.0
 11
1254.398116697128
 21
3720.317762169967
 31
0.0
  0
SPLINE
  5
238
330
6C
100
AcDbEntity
  8
Widoczne (ISO)
100
AcDbSpline
210
0.0
220
0.0
230
1.0
 70
    11
 71
     3
 72
    43
 73
    39
 74
     0
 42
0.0000000001
 43
0.0000000001
 40
-0.0348064305150966
 40
-0.0348064305150966
 40
-0.0348064305150966
 40
-0.0348064305150966
 40
0.0
 40
0.0
 40
0.0
 40
0.0398635185103196
 40
0.0398635185103196
 40
0.0797681566104669
 40
0.0797681566104669
 40
0.1493648835789786
 40
0.1493648835789786
 40
0.2185390838482473
 40
0.2185390838482473
 40
0.2867279605316952
 40
0.2867279605316952
 40
0.354140268787369
 40
0.354140268787369
 40
0.4216104183677003
 40
0.4216104183677003
 40
0.4901337375181898
 40
0.4901337375181898
 40
0.5599213367179024
 40
0.5599213367179024
 40
0.6299771456053663
 40
0.6299771456053663
 40
0.6998025046580521
 40
0.6998025046580521
 40
0.7685836551390564
 40
0.7685836551390564
 40
0.8365519770352161
 40
0.8365519770352161
 40
0.9042774533828447
 40
0.9042774533828447
 40
0.9723139966148202
 40
0.9723139966148202
 40
1.041002504136258
 40
1.041002504136258
 40
1.0755667283969
 40
1.0755667283969
 40
1.0755667283969
 40
1.0755667283969
 10
1220.612212134742
 20
3714.604821967725
 30
0.0
 10
1220.804658841644
 20
3714.604821967725
 30
0.0
 10
1220.997120323728
 20
3714.623649213137
 30
0.0
 10
1221.186806743531
 20
3714.661207899157
 30
0.0
 10
1221.404053039547
 20
3714.704223553257
 30
0.0
 10
1221.615820442862
 20
3714.771444563291
 30
0.0
 10
1222.020689190888
 20
3714.951660587371
 30
0.0
 10
1222.212558272919
 20
3715.064162567395
 30
0.0
 10
1222.699937770771
 20
3715.428258810808
 30
0.0
 10
1222.961959484462
 20
3715.717791438093
 30
0.0
 10
1223.359308093728
 20
3716.378435120537
 30
0.0
 10
1223.491833312982
 20
3716.74313074502
 30
0.0
 10
1223.608604079123
 20
3717.497115609428
 30
0.0
 10
1223.593851188774
 20
3717.879095928374
 30
0.0
 10
1223.419513962887
 20
3718.611672978653
 30
0.0
 10
1223.263252705911
 20
3718.955470283597
 30
0.0
 10
1222.827110027143
 20
3719.56435877268
 30
0.0
 10
1222.551684262224
 20
3719.823011674165
 30
0.0
 10
1221.911561983002
 20
3720.223740870917
 30
0.0
 10
1221.552449892352
 20
3720.359631086604
 30
0.0
 10
1220.794969675784
 20
3720.487724090566
 30
0.0
 10
1220.403592555477
 20
3720.475966095162
 30
0.0
 10
1219.646076036167
 20
3720.303469021234
 30
0.0
 10
1219.286676091094
 20
3720.143678144659
 30
0.0
 10
1218.650466948989
 20
3719.69728524813
 30
0.0
 10
1218.378769544818
 20
3719.414876650651
 30
0.0
 10
1217.962498073031
 20
3718.767043180359
 30
0.0
 10
1217.819842371896
 20
3718.408757065137
 30
0.0
 10
1217.681138809206
 20
3717.661956152408
 30
0.0
 10
1217.684751610689
 20
3717.281134965138
 30
0.0
 10
1217.837956560505
 20
3716.543302883497
 30
0.0
 10
1217.985487539753
 20
3716.193713327726
 30
0.0
 10
1218.407627362126
 20
3715.569076674052
 30
0.0
 10
1218.678506447139
 20
3715.30075390176
 30
0.0
 10
1219.311140652937
 20
3714.880829808602
 30
0.0
 10
1219.667369769531
 20
3714.734581337821
 30
0.0
 10
1220.230011635144
 20
3714.623385975861
 30
0.0
 10
1220.421104599809
 20
3714.604821967725
 30
0.0
 10
1220.612212134742
 20
3714.604821967725
 30
0.0
  0
SPLINE
  5
239
330
6C
100
AcDbEntity
  8
Widoczne (ISO)
100
AcDbSpline
210
0.0
220
0.0
230
1.0
 70
    11
 71
     3
 72
    43
 73
    39
 74
     0
 42
0.0000000001
 43
0.0000000001
 40
-1.075652850004884
 40
-1.075652850004884
 40
-1.075652850004884
 40
-1.075652850004884
 40
-1.07047001506992
 40
-1.07047001506992
 40
-1.030655695131077
 40
-1.030655695131077
 40
-0.9610922120650815
 40
-0.9610922120650815
 40
-0.8915039397634277
 40
-0.8915039397634277
 40
-0.8223376335126452
 40
-0.8223376335126452
 40
-0.7541566999858711
 40
-0.7541566999858711
 40
-0.6867530358908227
 40
-0.6867530358908227
 40
-0.6192928216211467
 40
-0.6192928216211467
 40
-0.550780617861143
 40
-0.550780617861143
 40
-0.48100365733863
 40
-0.48100365733863
 40
-0.4109585283644934
 40
-0.4109585283644934
 40
-0.3411431052247613
 40
-0.3411431052247613
 40
-0.2723719324259903
 40
-0.2723719324259903
 40
-0.2044141891216221
 40
-0.2044141891216221
 40
-0.1367001096758432
 40
-0.1367001096758432
 40
-0.0686757432993389
 40
-0.0686757432993389
 40
0.0
 40
0.0
 40
0.0
 40
0.0345555226620602
 40
0.0345555226620602
 40
0.0345555226620602
 40
0.0345555226620602
 10
1227.655486230711
 20
3756.137941282303
 30
0.0
 10
1227.626712136683
 20
3756.137941282303
 30
0.0
 10
1227.597929332313
 20
3756.137520403886
 30
0.0
 10
1227.348043247101
 20
3756.130208579217
 30
0.0
 10
1227.128349187249
 20
3756.098917755454
 30
0.0
 10
1226.540012448288
 20
3755.946742398436
 30
0.0
 10
1226.188164954775
 20
3755.77779636266
 30
0.0
 10
1225.568567393228
 20
3755.315287078714
 30
0.0
 10
1225.306437292541
 20
3755.025852125833
 30
0.0
 10
1224.908839050691
 20
3754.365352660513
 30
0.0
 10
1224.776175904026
 20
3754.000701927268
 30
0.0
 10
1224.659122354758
 20
3753.246750594872
 30
0.0
 10
1224.673732721237
 20
3752.864759167064
 30
0.0
 10
1224.847798530839
 20
3752.132109533505
 30
0.0
 10
1225.003931856832
 20
3751.788251222072
 30
0.0
 10
1225.43984613669
 20
3751.179200188832
 30
0.0
 10
1225.715171844699
 20
3750.920445502339
 30
0.0
 10
1226.355134143955
 20
3750.519481030854
 30
0.0
 10
1226.714187381641
 20
3750.383457577993
 30
0.0
 10
1227.471609611314
 20
3750.255080153666
 30
0.0
 10
1227.862988565139
 20
3750.266691190739
 30
0.0
 10
1228.620566595992
 20
3750.438905231843
 30
0.0
 10
1228.980025265476
 20
3750.598562413733
 30
0.0
 10
1229.61640379049
 20
3751.044721533356
 30
0.0
 10
1229.888209562857
 20
3751.327033316961
 30
0.0
 10
1230.304726577402
 20
3751.974721484902
 30
0.0
 10
1230.44751745117
 20
3752.332960002848
 30
0.0
 10
1230.586499366455
 20
3753.079717818473
 30
0.0
 10
1230.583028489328
 20
3753.460543400051
 30
0.0
 10
1230.430097315906
 20
3754.198435044294
 30
0.0
 10
1230.282697219717
 20
3754.548079412516
 30
0.0
 10
1229.860792073307
 20
3755.172870842768
 30
0.0
 10
1229.590015592505
 20
3755.441292989549
 30
0.0
 10
1228.957543913439
 20
3755.861449593738
 30
0.0
 10
1228.601373358771
 20
3756.00782992665
 30
0.0
 10
1228.227108644035
 20
3756.081941461042
 30
0.0
 10
1228.03879014597
 20
3756.119232106665
 30
0.0
 10
1227.847331788354
 20
3756.137941282303
 30
0.0
 10
1227.655486230711
 20
3756.137941282303
 30
0.0
  0
SPLINE
  5
23A
330
6C
100
AcDbEntity
  8
Widoczne (ISO)
100
AcDbSpline
210
0.0
220
0.0
230
1.0
 70
     8
 71
     3
 72
    26
 73
    22
 74
     0
 42
0.0000000001
 43
0.0000000001
 40
-1.035524930403988
 40
-1.035524930403988
 40
-1.035524930403988
 40
-1.035524930403988
 40
-1.027281278291038
 40
-1.027281278291038
 40
-0.958977597714005
 40
-0.958977597714005
 40
-0.8902188889953899
 40
-0.8902188889953899
 40
-0.8211067798017323
 40
-0.8211067798017323
 40
-0.7519669752755885
 40
-0.7519669752755885
 40
-0.6832465290175385
 40
-0.6832465290175385
 40
-0.6152284488751195
 40
-0.6152284488751195
 40
-0.547718172070439
 40
-0.547718172070439
 40
-0.4800764719465027
 40
-0.4800764719465027
 40
-0.4555532350987603
 40
-0.4555532350987603
 40
-0.4555532350987603
 40
-0.4555532350987603
 10
1177.33212795606
 20
3714.604821967725
 30
0.0
 10
1177.377878420974
 20
3714.604821967734
 30
0.0
 10
1177.423646437656
 20
3714.605905150454
 30
0.0
 10
1177.848439001326
 20
3714.626039250354
 30
0.0
 10
1178.22022761853
 20
3714.718214319865
 30
0.0
 10
1178.910022325626
 20
3715.040915091808
 30
0.0
 10
1179.220915351577
 20
3715.269194207042
 30
0.0
 10
1179.739172819104
 20
3715.833424092611
 30
0.0
 10
1179.941054939364
 20
3716.164532694218
 30
0.0
 10
1180.20668453529
 20
3716.885444226291
 30
0.0
 10
1180.267919859897
 20
3717.268603050109
 30
0.0
 10
1180.240242568241
 20
3718.034195970363
 30
0.0
 10
1180.15248647288
 20
3718.409677304649
 30
0.0
 10
1179.839651358791
 20
3719.102054278805
 30
0.0
 10
1179.618855443143
 20
3719.413129515674
 30
0.0
 10
1179.072370217778
 20
3719.931094525091
 30
0.0
 10
1178.752774532002
 20
3720.13370630218
 30
0.0
 10
1178.052791336619
 20
3720.405277666408
 30
0.0
 10
1177.679466729502
 20
3720.471189188451
 30
0.0
 10
1177.16753733616
 20
3720.460966029939
 30
0.0
 10
1177.032009139129
 20
3720.448617224954
 30
0.0
 10
1176.898130066169
 20
3720.426891485689
 30
0.0
  0
SPLINE
  5
23B
330
6C
100
AcDbEntity
  8
Widoczne (ISO)
100
AcDbSpline
210
0.0
220
0.0
230
1.0
 70
    11
 71
     3
 72
    43
 73
    39
 74
     0
 42
0.0000000001
 43
0.0000000001
 40
-0.0686529012604215
 40
-0.0686529012604215
 40
-0.0686529012604215
 40
-0.0686529012604215
 40
-0.0682613357899009
 40
-0.0682613357899009
 40
0.0
 40
0.0
 40
0.0
 40
0.0388939154011387
 40
0.0388939154011387
 40
0.0778424670501825
 40
0.0778424670501825
 40
0.1469714482176644
 40
0.1469714482176644
 40
0.2161198752471672
 40
0.2161198752471672
 40
0.2848405076158087
 40
0.2848405076158087
 40
0.3528569779055941
 40
0.3528569779055941
 40
0.4203743232216438
 40
0.4203743232216438
 40
0.488036603562002
 40
0.488036603562002
 40
0.5564161899276692
 40
0.5564161899276692
 40
0.6255116678258308
 40
0.6255116678258308
 40
0.6948230362363172
 40
0.6948230362363172
 40
0.7638318210955852
 40
0.7638318210955852
 40
0.8323152126513024
 40
0.8323152126513024
 40
0.9003497071662719
 40
0.9003497071662719
 40
0.9681832598960546
 40
0.9681832598960546
 40
1.035717436946565
 40
1.035717436946565
 40
1.035717436946565
 40
1.035717436946565
 10
1180.124048679934
 20
3756.137941282302
 30
0.0
 10
1180.121873778184
 20
3756.137941282302
 30
0.0
 10
1180.119698754658
 20
3756.13793883442
 30
0.0
 10
1179.738332746024
 20
3756.137080329523
 30
0.0
 10
1179.363044592388
 20
3756.061836568787
 30
0.0
 10
1179.012644135249
 20
3755.916803324401
 30
0.0
 10
1178.812993109104
 20
3755.834166342979
 30
0.0
 10
1178.623151704669
 20
3755.729589021663
 30
0.0
 10
1178.269710704257
 20
3755.480375274976
 30
0.0
 10
1178.107236096112
 20
3755.336450525763
 30
0.0
 10
1177.704352809498
 20
3754.891214308401
 30
0.0
 10
1177.504926250484
 20
3754.558590829396
 30
0.0
 10
1177.244667587997
 20
3753.835719850402
 30
0.0
 10
1177.186280284545
 20
3753.452138234921
 30
0.0
 10
1177.219636498804
 20
3752.686859996597
 30
0.0
 10
1177.31015410265
 20
3752.312106082889
 30
0.0
 10
1177.628050502078
 20
3751.622194727181
 30
0.0
 10
1177.851098422083
 20
3751.312827791765
 30
0.0
 10
1178.401334155062
 20
3750.798994412778
 30
0.0
 10
1178.722404605798
 20
3750.59877919985
 30
0.0
 10
1179.424413918414
 20
3750.332409600249
 30
0.0
 10
1179.798273961351
 20
3750.269279232639
 30
0.0
 10
1180.553661536734
 20
3750.290005828344
 30
0.0
 10
1180.927463785936
 20
3750.375203801278
 30
0.0
 10
1181.625268011643
 20
3750.6856015449
 30
0.0
 10
1181.941948294607
 20
3750.909236987665
 30
0.0
 10
1182.472592052606
 20
3751.465824652493
 30
0.0
 10
1182.681391719129
 20
3751.794031841589
 30
0.0
 10
1182.960753209398
 20
3752.51003638536
 30
0.0
 10
1183.029389105317
 20
3752.891094693965
 30
0.0
 10
1183.016665961664
 20
3753.654923413817
 30
0.0
 10
1182.936558128663
 20
3754.030546705513
 30
0.0
 10
1182.637634900156
 20
3754.727589202353
 30
0.0
 10
1182.422598803154
 20
3755.042634335876
 30
0.0
 10
1181.884389005476
 20
3755.571759619883
 30
0.0
 10
1181.566812713108
 20
3755.780933834943
 30
0.0
 10
1180.870646637294
 20
3756.065124546101
 30
0.0
 10
1180.499158874498
 20
3756.137941282302
 30
0.0
 10
1180.124048679934
 20
3756.137941282302
 30
0.0
  0
SPLINE
  5
23C
330
6C
100
AcDbEntity
  8
Widoczne (ISO)
100
AcDbSpline
210
0.0
220
0.0
230
1.0
 70
     8
 71
     3
 72
     8
 73
     4
 74
     0
 42
0.0000000001
 43
0.0000000001
 40
-1.061697116960166
 40
-1.061697116960166
 40
-1.061697116960166
 40
-1.061697116960166
 40
-1.035524930403988
 40
-1.035524930403988
 40
-1.035524930403988
 40
-1.035524930403988
 10
1176.898130066169
 20
3714.637513705061
 30
0.0
 10
1177.041805050677
 20
3714.615740021944
 30
0.0
 10
1177.186878049057
 20
3714.604821967697
 30
0.0
 10
1177.33212795606
 20
3714.604821967725
 30
0.0
  0
LINE
  5
23D
330
6C
100
AcDbEntity
  8
Widoczne (ISO)
100
AcDbLine
 10
1176.898130066169
 20
3720.426891485689
 30
0.0
 11
1176.898130066169
 21
3714.637513705061
 31
0.0
  0
SPLINE
  5
23E
330
6C
100
AcDbEntity
  8
Widoczne (ISO)
100
AcDbSpline
210
0.0
220
0.0
230
1.0
 70
    11
 71
     3
 72
    43
 73
    39
 74
     0
 42
0.0000000001
 43
0.0000000001
 40
-0.069501948967765
 40
-0.069501948967765
 40
-0.069501948967765
 40
-0.069501948967765
 40
0.0
 40
0.0
 40
0.0
 40
0.0395882073006457
 40
0.0395882073006457
 40
0.0791905722764026
 40
0.0791905722764026
 40
0.1487594585983764
 40
0.1487594585983764
 40
0.2174660918312463
 40
0.2174660918312463
 40
0.2852069972509836
 40
0.2852069972509836
 40
0.3525165666041585
 40
0.3525165666041585
 40
0.4204055030933186
 40
0.4204055030933186
 40
0.4896231353836395
 40
0.4896231353836395
 40
0.559887493810712
 40
0.559887493810712
 40
0.6301083621623074
 40
0.6301083621623074
 40
0.6994275468532346
 40
0.6994275468532346
 40
0.7677479632797097
 40
0.7677479632797097
 40
0.8355224463730031
 40
0.8355224463730031
 40
0.9033467238636532
 40
0.9033467238636532
 40
0.9716854657193032
 40
0.9716854657193032
 40
1.040740625535516
 40
1.040740625535516
 40
1.040918030653855
 40
1.040918030653855
 40
1.040918030653855
 40
1.040918030653855
 10
1205.768891118076
 20
3714.604821967725
 30
0.0
 10
1206.154938780069
 20
3714.604821967725
 30
0.0
 10
1206.537351264487
 20
3714.680567453707
 30
0.0
 10
1206.894557159764
 20
3714.827176116251
 30
0.0
 10
1207.09802110921
 20
3714.910684193521
 30
0.0
 10
1207.291632473886
 20
3715.016495613394
 30
0.0
 10
1207.652090633855
 20
3715.268741912356
 30
0.0
 10
1207.817879738907
 20
3715.41445799347
 30
0.0
 10
1208.226525239409
 20
3715.86263792229
 30
0.0
 10
1208.429107810038
 20
3716.196259838123
 30
0.0
 10
1208.693151496457
 20
3716.917553980169
 30
0.0
 10
1208.753943746248
 20
3717.29802043879
 30
0.0
 10
1208.726264192171
 20
3718.055305714006
 30
0.0
 10
1208.640118003826
 20
3718.425007755155
 30
0.0
 10
1208.331624961069
 20
3719.108524244717
 30
0.0
 10
1208.113239672676
 20
3719.415793832443
 30
0.0
 10
1207.568080795111
 20
3719.931922187531
 30
0.0
 10
1207.246242961506
 20
3720.134389170333
 30
0.0
 10
1206.53553709803
 20
3720.407665788889
 30
0.0
 10
1206.15298496738
 20
3720.47295847752
 30
0.0
 10
1205.378432110051
 20
3720.453563598443
 30
0.0
 10
1204.993673175541
 20
3720.366792149046
 30
0.0
 10
1204.279729502583
 20
3720.05141920443
 30
0.0
 10
1203.956575671104
 20
3719.825584712187
 30
0.0
 10
1203.419023216174
 20
3719.266969967426
 30
0.0
 10
1203.20792638435
 20
3718.940427992668
 30
0.0
 10
1202.925238170897
 20
3718.23004091762
 30
0.0
 10
1202.854354829411
 20
3717.85376780303
 30
0.0
 10
1202.861236808395
 20
3717.097975831225
 30
0.0
 10
1202.937770235914
 20
3716.72607645437
 30
0.0
 10
1203.229660475282
 20
3716.031986116917
 30
0.0
 10
1203.442148866405
 20
3715.716924525181
 30
0.0
 10
1203.97828203928
 20
3715.183759176303
 30
0.0
 10
1204.297310816093
 20
3714.971807445748
 30
0.0
 10
1205.002518248495
 20
3714.680385853036
 30
0.0
 10
1205.382350587875
 20
3714.605207748937
 30
0.0
 10
1205.766920305595
 20
3714.604822461323
 30
0.0
 10
1205.767905723678
 20
3714.604821967725
 30
0.0
 10
1205.768891118076
 20
3714.604821967725
 30
0.0
  0
SPLINE
  5
23F
330
6C
100
AcDbEntity
  8
Widoczne (ISO)
100
AcDbSpline
210
0.0
220
0.0
230
1.0
 70
    11
 71
     3
 72
    43
 73
    39
 74
     0
 42
0.0000000001
 43
0.0000000001
 40
-1.047924883300108
 40
-1.047924883300108
 40
-1.047924883300108
 40
-1.047924883300108
 40
-1.030821788609643
 40
-1.030821788609643
 40
-0.9613160030737628
 40
-0.9613160030737628
 40
-0.891723128996969
 40
-0.891723128996969
 40
-0.8222410751089405
 40
-0.8222410751089405
 40
-0.7536573537013311
 40
-0.7536573537013311
 40
-0.6860148232222208
 40
-0.6860148232222208
 40
-0.6187111581237908
 40
-0.6187111581237908
 40
-0.5507197868024764
 40
-0.5507197868024764
 40
-0.4813742704468423
 40
-0.4813742704468423
 40
-0.4114048473147053
 40
-0.4114048473147053
 40
-0.34137010765319
 40
-0.34137010765319
 40
-0.2721779296447748
 40
-0.2721779296447748
 40
-0.2039572199164784
 40
-0.2039572199164784
 40
-0.1362236811922465
 40
-0.1362236811922465
 40
-0.0683852329161302
 40
-0.0683852329161302
 40
0.0
 40
0.0
 40
0.0
 40
0.0396131069343071
 40
0.0396131069343071
 40
0.0622030266593201
 40
0.0622030266593201
 40
0.0622030266593201
 40
0.0622030266593201
 10
1212.812165214044
 20
3756.137941282303
 30
0.0
 10
1212.717286372002
 20
3756.137941282303
 30
0.0
 10
1212.622388534636
 20
3756.1333651992
 30
0.0
 10
1212.143424532195
 20
3756.087052872434
 30
0.0
 10
1211.769907831057
 20
3755.974979588439
 30
0.0
 10
1211.086188501056
 20
3755.614496684321
 30
0.0
 10
1210.782287875853
 20
3755.369196503613
 30
0.0
 10
1210.285639472118
 20
3754.777114093784
 30
0.0
 10
1210.097165973164
 20
3754.435799741102
 30
0.0
 10
1209.863369363241
 20
3753.705206085735
 30
0.0
 10
1209.818347872626
 20
3753.323187438546
 30
0.0
 10
1209.877073205358
 20
3752.568753774082
 30
0.0
 10
1209.978253071042
 20
3752.203392708155
 30
0.0
 10
1210.314469774521
 20
3751.533538772785
 30
0.0
 10
1210.545435506667
 20
3751.235551934735
 30
0.0
 10
1211.112055772569
 20
3750.741976896454
 30
0.0
 10
1211.442655812265
 20
3750.552757559211
 30
0.0
 10
1212.16553221088
 20
3750.308836307296
 30
0.0
 10
1212.551336742674
 20
3750.259419978196
 30
0.0
 10
1213.323700476985
 20
3750.310991403511
 30
0.0
 10
1213.703127016577
 20
3750.412846934393
 30
0.0
 10
1214.401817361404
 20
3750.755151328255
 30
0.0
 10
1214.715128323477
 20
3750.992840755152
 30
0.0
 10
1215.229568246077
 20
3751.570753257103
 30
0.0
 10
1215.42752055634
 20
3751.9046765658
 30
0.0
 10
1215.682082849136
 20
3752.624493240818
 30
0.0
 10
1215.738208057675
 20
3753.002768982153
 30
0.0
 10
1215.701966507912
 20
3753.757143498621
 30
0.0
 10
1215.611001564418
 20
3754.125653768144
 30
0.0
 10
1215.29222600493
 20
3754.807890814406
 30
0.0
 10
1215.067452756052
 20
3755.114557430297
 30
0.0
 10
1214.510460067292
 20
3755.626738251842
 30
0.0
 10
1214.183040399195
 20
3755.826239466245
 30
0.0
 10
1213.826511626652
 20
3755.957483099118
 30
0.0
 10
1213.619987326161
 20
3756.033507817346
 30
0.0
 10
1213.405537173467
 20
3756.085952237653
 30
0.0
 10
1213.062765714442
 20
3756.129958305285
 30
0.0
 10
1212.937482033258
 20
3756.137941282303
 30
0.0
 10
1212.812165214044
 20
3756.137941282303
 30
0.0
  0
SPLINE
  5
240
330
6C
100
AcDbEntity
  8
Widoczne (ISO)
100
AcDbSpline
210
0.0
220
0.0
230
1.0
 70
    11
 71
     3
 72
    43
 73
    39
 74
     0
 42
0.0000000001
 43
0.0000000001
 40
-0.0760474221253728
 40
-0.0760474221253728
 40
-0.0760474221253728
 40
-0.0760474221253728
 40
-0.0686866870750241
 40
-0.0686866870750241
 40
0.0
 40
0.0
 40
0.0
 40
0.0390795069482084
 40
0.0390795069482084
 40
0.0781924378699777
 40
0.0781924378699777
 40
0.1474052848368544
 40
0.1474052848368544
 40
0.21635050064635
 40
0.21635050064635
 40
0.2847109468235798
 40
0.2847109468235798
 40
0.3525103805748909
 40
0.3525103805748909
 40
0.4202199853548409
 40
0.4202199853548409
 40
0.4884486474811098
 40
0.4884486474811098
 40
0.5574051380225167
 40
0.5574051380225167
 40
0.6267420788992196
 40
0.6267420788992196
 40
0.695927691500336
 40
0.695927691500336
 40
0.7646464183420295
 40
0.7646464183420295
 40
0.8328948300356815
 40
0.8328948300356815
 40
0.9008829921956216
 40
0.9008829921956216
 40
0.9688940914507123
 40
0.9688940914507123
 40
1.029815117670823
 40
1.029815117670823
 40
1.029815117670823
 40
1.029815117670823
 10
1186.120352531462
 20
3756.137941282303
 30
0.0
 10
1186.07954062828
 20
3756.137941282303
 30
0.0
 10
1186.038695232186
 20
3756.137083120992
 30
0.0
 10
1185.616630583134
 20
3756.119312476439
 30
0.0
 10
1185.242290570934
 20
3756.028535944618
 30
0.0
 10
1184.895837355381
 20
3755.868588569884
 30
0.0
 10
1184.698721707197
 20
3755.777586007256
 30
0.0
 10
1184.512316790787
 20
3755.664970198778
 30
0.0
 10
1184.167550358953
 20
3755.400681597592
 30
0.0
 10
1184.010256466031
 20
3755.249775915971
 30
0.0
 10
1183.624496363336
 20
3754.787834997271
 30
0.0
 10
1183.438000759439
 20
3754.447238241764
 30
0.0
 10
1183.206449991162
 20
3753.715417744777
 30
0.0
 10
1183.162967180893
 20
3753.331084002569
 30
0.0
 10
1183.22538489181
 20
3752.570861529024
 30
0.0
 10
1183.329458737987
 20
3752.201882298645
 30
0.0
 10
1183.671738840894
 20
3751.527447324292
 30
0.0
 10
1183.905605250945
 20
3751.227890911219
 30
0.0
 10
1184.474899277582
 20
3750.7355809742
 30
0.0
 10
1184.804489241961
 20
3750.547629295108
 30
0.0
 10
1185.520418539809
 20
3750.307803404006
 30
0.0
 10
1185.899756679765
 20
3750.259457841958
 30
0.0
 10
1186.660021153297
 20
3750.311290523872
 30
0.0
 10
1187.033303904279
 20
3750.412526674309
 30
0.0
 10
1187.721968046473
 20
3750.753126127871
 30
0.0
 10
1188.03060582974
 20
3750.990066706701
 30
0.0
 10
1188.53909957069
 20
3751.567797078949
 30
0.0
 10
1188.734634970125
 20
3751.903182193891
 30
0.0
 10
1188.985322164825
 20
3752.627206441705
 30
0.0
 10
1189.039120895176
 20
3753.008855702175
 30
0.0
 10
1188.997463986635
 20
3753.768627998153
 30
0.0
 10
1188.903414207756
 20
3754.139524402387
 30
0.0
 10
1188.578801986456
 20
3754.823134486044
 30
0.0
 10
1188.351929839771
 20
3755.129365697049
 30
0.0
 10
1187.793171785653
 20
3755.637711806754
 30
0.0
 10
1187.466776463154
 20
3755.834756082091
 30
0.0
 10
1186.793616612274
 20
3756.079153911058
 30
0.0
 10
1186.458131707979
 20
3756.137941282302
 30
0.0
 10
1186.120352531462
 20
3756.137941282303
 30
0.0
  0
SPLINE
  5
241
330
6C
100
AcDbEntity
  8
Widoczne (ISO)
100
AcDbSpline
210
0.0
220
0.0
230
1.0
 70
    11
 71
     3
 72
    43
 73
    39
 74
     0
 42
0.0000000001
 43
0.0000000001
 40
-1.035477103447014
 40
-1.035477103447014
 40
-1.035477103447014
 40
-1.035477103447014
 40
-1.027281456075305
 40
-1.027281456075305
 40
-0.9589780844793137
 40
-0.9589780844793137
 40
-0.890219690154131
 40
-0.890219690154131
 40
-0.821107742027419
 40
-0.821107742027419
 40
-0.7519678030971228
 40
-0.7519678030971228
 40
-0.683246920840861
 40
-0.683246920840861
 40
-0.6152283479400804
 40
-0.6152283479400804
 40
-0.5477179077507426
 40
-0.5477179077507426
 40
-0.4800765521980414
 40
-0.4800765521980414
 40
-0.411724438196072
 40
-0.411724438196072
 40
-0.3426501349154783
 40
-0.3426501349154783
 40
-0.2733480289296779
 40
-0.2733480289296779
 40
-0.2043403921980977
 40
-0.2043403921980977
 40
-0.1358566414897683
 40
-0.1358566414897683
 40
-0.0678251320648876
 40
-0.0678251320648876
 40
0.0
 40
0.0
 40
0.0
 40
0.0384513175362231
 40
0.0384513175362231
 40
0.068720666541531
 40
0.068720666541531
 40
0.068720666541531
 40
0.068720666541531
 10
1183.215950592078
 20
3714.604821967725
 30
0.0
 10
1183.261434843881
 20
3714.604821967725
 30
0.0
 10
1183.306936518621
 20
3714.605892581456
 30
0.0
 10
1183.7314664897
 20
3714.625896975316
 30
0.0
 10
1184.103278785494
 20
3714.717969065754
 30
0.0
 10
1184.793159277461
 20
3715.040478133597
 30
0.0
 10
1185.104113743419
 20
3715.2686704493
 30
0.0
 10
1185.622524916364
 20
3715.832755483282
 30
0.0
 10
1185.824497649819
 20
3716.163807684635
 30
0.0
 10
1186.090325625324
 20
3716.884645940371
 30
0.0
 10
1186.151666247998
 20
3717.267788698546
 30
0.0
 10
1186.124199079117
 20
3718.03339241984
 30
0.0
 10
1186.036545256122
 20
3718.408900260565
 30
0.0
 10
1185.723897727923
 20
3719.101367722515
 30
0.0
 10
1185.503185365337
 20
3719.41250584494
 30
0.0
 10
1184.956839437172
 20
3719.930623178799
 30
0.0
 10
1184.637298624016
 20
3720.133323414652
 30
0.0
 10
1183.937391062181
 20
3720.405086906022
 30
0.0
 10
1183.564086632199
 20
3720.471101227152
 30
0.0
 10
1182.808707910423
 20
3720.456225054991
 30
0.0
 10
1182.434352278121
 20
3720.373947846713
 30
0.0
 10
1181.734302056345
 20
3720.069025471384
 30
0.0
 10
1181.415954279542
 20
3719.847878374107
 30
0.0
 10
1180.881060295489
 20
3719.29544440605
 30
0.0
 10
1180.669735571824
 20
3718.968847361903
 30
0.0
 10
1180.384843708106
 20
3718.254961097893
 30
0.0
 10
1180.313269674181
 20
3717.874387195449
 30
0.0
 10
1180.320116610496
 20
3717.110372019994
 30
0.0
 10
1180.397344336349
 20
3716.734082956394
 30
0.0
 10
1180.690932059554
 20
3716.034670322065
 30
0.0
 10
1180.90355610451
 20
3715.717944400676
 30
0.0
 10
1181.43770483703
 20
3715.184655771237
 30
0.0
 10
1181.753662317085
 20
3714.973033096121
 30
0.0
 10
1182.101411028022
 20
3714.82793377269
 30
0.0
 10
1182.298556182037
 20
3714.745674291734
 30
0.0
 10
1182.504191691324
 20
3714.685517282181
 30
0.0
 10
1182.880210233847
 20
3714.619426046855
 30
0.0
 10
1183.047961581616
 20
3714.604821967725
 30
0.0
 10
1183.215950592078
 20
3714.604821967725
 30
0.0
  0
LINE
  5
242
330
6C
100
AcDbEntity
  8
Widoczne (ISO)
100
AcDbLine
 10
1112.920546732838
 20
3718.704714958351
 30
0.0
 11
1112.920546732838
 21
3708.704714958351
 31
0.0
  0
LINE
  5
243
330
6C
100
AcDbEntity
  8
Widoczne (ISO)
100
AcDbLine
 10
1111.898130066171
 20
3709.727131625018
 30
0.0
 11
1111.898130066171
 21
3717.682298291684
 31
0.0
  0
LINE
  5
244
330
6C
100
AcDbEntity
  8
Widoczne (ISO)
100
AcDbLine
 10
1111.898130066171
 20
3717.682298291684
 30
0.0
 11
1112.920546732838
 21
3718.704714958351
 31
0.0
  0
LINE
  5
245
330
6C
100
AcDbEntity
  8
Widoczne (ISO)
100
AcDbLine
 10
1111.898130066171
 20
3709.727131625018
 30
0.0
 11
1112.920546732838
 21
3708.704714958351
 31
0.0
  0
LINE
  5
246
330
6C
100
AcDbEntity
  8
Widoczne (ISO)
100
AcDbLine
 10
1130.231463399506
 20
3708.704714958351
 30
0.0
 11
1129.997537159957
 21
3708.704714958351
 31
0.0
  0
LINE
  5
247
330
6C
100
AcDbEntity
  8
Widoczne (ISO)
100
AcDbLine
 10
1126.508929057573
 20
3708.704714958351
 30
0.0
 11
1112.920546732838
 21
3708.704714958351
 31
0.0
  0
LINE
  5
248
330
6C
100
AcDbEntity
  8
Widoczne (ISO)
100
AcDbLine
 10
1126.898130066174
 20
3718.704714958351
 30
0.0
 11
1112.920546732838
 21
3718.704714958351
 31
0.0
  0
LINE
  5
249
330
6C
100
AcDbEntity
  8
Widoczne (ISO)
100
AcDbLine
 10
1112.920546732838
 20
3762.038048291684
 30
0.0
 11
1112.920546732838
 21
3752.038048291684
 31
0.0
  0
LINE
  5
24A
330
6C
100
AcDbEntity
  8
Widoczne (ISO)
100
AcDbLine
 10
1111.898130066171
 20
3753.060464958351
 30
0.0
 11
1111.898130066171
 21
3761.015631625018
 31
0.0
  0
LINE
  5
24B
330
6C
100
AcDbEntity
  8
Widoczne (ISO)
100
AcDbLine
 10
1111.898130066171
 20
3761.015631625018
 30
0.0
 11
1112.920546732838
 21
3762.038048291684
 31
0.0
  0
LINE
  5
24C
330
6C
100
AcDbEntity
  8
Widoczne (ISO)
100
AcDbLine
 10
1111.898130066171
 20
3753.060464958351
 30
0.0
 11
1112.920546732838
 21
3752.038048291685
 31
0.0
  0
LINE
  5
24D
330
6C
100
AcDbEntity
  8
Widoczne (ISO)
100
AcDbLine
 10
1126.898130066174
 20
3752.038048291685
 30
0.0
 11
1112.920546732838
 21
3752.038048291685
 31
0.0
  0
LINE
  5
24E
330
6C
100
AcDbEntity
  8
Widoczne (ISO)
100
AcDbLine
 10
1130.231463399506
 20
3762.038048291684
 30
0.0
 11
1129.997537159956
 21
3762.038048291684
 31
0.0
  0
LINE
  5
24F
330
6C
100
AcDbEntity
  8
Widoczne (ISO)
100
AcDbLine
 10
1126.50892905757
 20
3762.038048291684
 30
0.0
 11
1112.920546732838
 21
3762.038048291684
 31
0.0
  0
LINE
  5
250
330
6C
100
AcDbEntity
  8
Widoczne (ISO)
100
AcDbLine
 10
1168.56479673283
 20
3701.204714958169
 30
0.0
 11
1168.693527447786
 21
3701.204714958169
 31
0.0
  0
LINE
  5
251
330
6C
100
AcDbEntity
  8
Widoczne (ISO)
100
AcDbLine
 10
1215.231463399496
 20
3702.871381624835
 30
0.0
 11
1215.231463399496
 21
3702.038048291684
 31
0.0
  0
LINE
  5
252
330
6C
100
AcDbEntity
  8
Widoczne (ISO)
100
AcDbLine
 10
1174.676341898582
 20
3702.871381624835
 30
0.0
 11
1215.231463399496
 21
3702.871381624835
 31
0.0
  0
LINE
  5
253
330
6C
100
AcDbEntity
  8
Widoczne (ISO)
100
AcDbLine
 10
1165.231463399496
 20
3768.704714958169
 30
0.0
 11
1165.231463399496
 21
3760.704714954429
 31
0.0
  0
LINE
  5
254
330
6C
100
AcDbEntity
  8
Widoczne (ISO)
100
AcDbLine
 10
1165.231463399496
 20
3710.038048291682
 30
0.0
 11
1165.231463399496
 21
3704.538048291502
 31
0.0
  0
LINE
  5
255
330
6C
100
AcDbEntity
  8
Widoczne (ISO)
100
AcDbLine
 10
1166.898130066162
 20
3768.704714958169
 30
0.0
 11
1166.898130066162
 21
3767.073039349851
 31
0.0
  0
LINE
  5
256
330
6C
100
AcDbEntity
  8
Widoczne (ISO)
100
AcDbLine
 10
1171.863139007669
 20
3772.038048291502
 30
0.0
 11
1168.564796732829
 21
3772.038048291502
 31
0.0
  0
LINE
  5
257
330
6C
100
AcDbEntity
  8
Widoczne (ISO)
100
AcDbLine
 10
1169.5391935257
 20
3770.371381624836
 30
0.0
 11
1168.564796732829
 21
3770.371381624836
 31
0.0
  0
ARC
  5
258
330
6C
100
AcDbEntity
  8
Widoczne (ISO)
100
AcDbCircle
 10
1168.56479673283
 20
3704.538048291502
 30
0.0
 40
3.333333333333338
100
AcDbArc
 50
180.0
 51
270.0
  0
ARC
  5
259
330
6C
100
AcDbEntity
  8
Widoczne (ISO)
100
AcDbCircle
 10
1168.564796732829
 20
3768.704714958169
 30
0.0
 40
1.666666666666672
100
AcDbArc
 50
90.0
 51
180.0
  0
ARC
  5
25A
330
6C
100
AcDbEntity
  8
Widoczne (ISO)
100
AcDbCircle
 10
1168.564796732829
 20
3768.704714958169
 30
0.0
 40
3.333333333333336
100
AcDbArc
 50
90.0
 51
180.0
  0
LINE
  5
25B
330
6C
100
AcDbEntity
  8
Widoczne (ISO)
100
AcDbLine
 10
2190.231463399444
 20
3692.87138162502
 30
0.0
 11
2028.564796732767
 21
3692.87138162502
 31
0.0
  0
LINE
  5
25C
330
6C
100
AcDbEntity
  8
Widoczne (ISO)
100
AcDbLine
 10
2190.231463399444
 20
3702.871381625019
 30
0.0
 11
2190.231463399444
 21
3692.871381625019
 31
0.0
  0
LINE
  5
25D
330
6C
100
AcDbEntity
  8
Widoczne (ISO)
100
AcDbLine
 10
2190.231463399444
 20
3702.871381625019
 30
0.0
 11
2028.564796732767
 21
3702.87138162502
 31
0.0
  0
LINE
  5
25E
330
6C
100
AcDbEntity
  8
Widoczne (ISO)
100
AcDbLine
 10
2028.564796732767
 20
3702.87138162502
 30
0.0
 11
2028.564796732767
 21
3702.538048291682
 31
0.0
  0
LINE
  5
25F
330
6C
100
AcDbEntity
  8
Widoczne (ISO)
100
AcDbLine
 10
2028.564796732767
 20
3700.181226250164
 30
0.0
 11
2028.564796732767
 21
3692.87138162502
 31
0.0
  0
LINE
  5
260
330
6C
100
AcDbEntity
  8
Widoczne (ISO)
100
AcDbLine
 10
2028.564796732767
 20
3779.204714958353
 30
0.0
 11
2190.231463399445
 21
3779.204714958352
 31
0.0
  0
LINE
  5
261
330
6C
100
AcDbEntity
  8
Widoczne (ISO)
100
AcDbLine
 10
2190.231463399445
 20
3769.204714958352
 30
0.0
 11
2190.231463399445
 21
3779.204714958352
 31
0.0
  0
LINE
  5
262
330
6C
100
AcDbEntity
  8
Widoczne (ISO)
100
AcDbLine
 10
2028.564796732767
 20
3771.561536999869
 30
0.0
 11
2028.564796732767
 21
3779.204714958353
 31
0.0
  0
ARC
  5
263
330
6C
100
AcDbEntity
  8
Widoczne (ISO)
100
AcDbCircle
 10
2171.898130066006
 20
3626.20471495836
 30
0.0
 40
76.66666666666668
100
AcDbArc
 50
258.3822932152115
 51
76.16477638588175
  0
LINE
  5
264
330
6C
100
AcDbEntity
  8
Widoczne (ISO)
100
AcDbLine
 10
2156.458947579065
 20
3551.108713587363
 30
0.0
 11
1468.58780741824
 21
3692.529932647706
 31
0.0
  0
ARC
  5
265
330
6C
100
AcDbEntity
  8
Widoczne (ISO)
100
AcDbCircle
 10
1465.23146339934
 20
3676.204714958359
 30
0.0
 40
16.66666666666641
100
AcDbArc
 50
78.38229321521165
 51
90.0
  0
LINE
  5
266
330
6C
100
AcDbEntity
  8
Widoczne (ISO)
100
AcDbLine
 10
1465.23146339934
 20
3692.871381625025
 30
0.0
 11
1281.898130066007
 21
3692.871381625025
 31
0.0
  0
LINE
  5
267
330
6C
100
AcDbEntity
  8
Widoczne (ISO)
100
AcDbLine
 10
1281.898130066007
 20
3692.871381625025
 30
0.0
 11
1281.898130066007
 21
3702.871381625025
 31
0.0
  0
LINE
  5
268
330
6C
100
AcDbEntity
  8
Widoczne (ISO)
100
AcDbLine
 10
1281.898130066007
 20
3702.871381625025
 30
0.0
 11
1441.898130066149
 21
3702.871381625025
 31
0.0
  0
LINE
  5
269
330
6C
100
AcDbEntity
  8
Widoczne (ISO)
100
AcDbLine
 10
1510.098892121894
 20
3694.204714958347
 30
0.0
 11
2158.472753990405
 21
3560.903844200971
 31
0.0
  0
ARC
  5
26A
330
6C
100
AcDbEntity
  8
Widoczne (ISO)
100
AcDbCircle
 10
2171.898130066006
 20
3626.20471495836
 30
0.0
 40
66.66666666666668
100
AcDbArc
 50
258.3822932152116
 51
89.99999999999976
  0
LINE
  5
26B
330
6C
100
AcDbEntity
  8
Widoczne (ISO)
100
AcDbLine
 10
2028.564796732766
 20
3692.871381625026
 30
0.0
 11
1971.898130066006
 21
3692.871381625026
 31
0.0
  0
LINE
  5
26C
330
6C
100
AcDbEntity
  8
Widoczne (ISO)
100
AcDbLine
 10
1971.898130066006
 20
3692.871381625026
 30
0.0
 11
1971.898130066006
 21
3694.204714958348
 31
0.0
  0
LINE
  5
26D
330
6C
100
AcDbEntity
  8
Widoczne (ISO)
100
AcDbLine
 10
2000.231463399482
 20
3702.871381625025
 30
0.0
 11
2028.564796732766
 21
3702.871381625026
 31
0.0
  0
ARC
  5
26E
330
6C
100
AcDbEntity
  8
Widoczne (ISO)
100
AcDbCircle
 10
2171.898130066006
 20
3845.871381625026
 30
0.0
 40
76.66666666666684
100
AcDbArc
 50
283.8352236141181
 51
101.617706784789
  0
LINE
  5
26F
330
6C
100
AcDbEntity
  8
Widoczne (ISO)
100
AcDbLine
 10
2156.458947579066
 20
3920.967382996023
 30
0.0
 11
1468.587807418241
 21
3779.546163935678
 31
0.0
  0
ARC
  5
270
330
6C
100
AcDbEntity
  8
Widoczne (ISO)
100
AcDbCircle
 10
1465.23146339934
 20
3795.871381625025
 30
0.0
 40
16.66666666666644
100
AcDbArc
 50
270.0
 51
281.6177067847884
  0
LINE
  5
271
330
6C
100
AcDbEntity
  8
Widoczne (ISO)
100
AcDbLine
 10
1465.23146339934
 20
3779.204714958359
 30
0.0
 11
1281.898130066007
 21
3779.204714958358
 31
0.0
  0
LINE
  5
272
330
6C
100
AcDbEntity
  8
Widoczne (ISO)
100
AcDbLine
 10
1281.898130066007
 20
3779.204714958358
 30
0.0
 11
1281.898130066007
 21
3769.204714958358
 31
0.0
  0
LINE
  5
273
330
6C
100
AcDbEntity
  8
Widoczne (ISO)
100
AcDbLine
 10
1508.477562723152
 20
3777.538048291681
 30
0.0
 11
2158.472753990406
 21
3911.172252382414
 31
0.0
  0
ARC
  5
274
330
6C
100
AcDbEntity
  8
Widoczne (ISO)
100
AcDbCircle
 10
2171.898130066006
 20
3845.871381625026
 30
0.0
 40
66.66666666666678
100
AcDbArc
 50
270.0000000000002
 51
101.6177067847885
  0
LINE
  5
275
330
6C
100
AcDbEntity
  8
Widoczne (ISO)
100
AcDbLine
 10
2028.564796732767
 20
3779.204714958359
 30
0.0
 11
1971.898130066007
 21
3779.204714958359
 31
0.0
  0
LINE
  5
276
330
6C
100
AcDbEntity
  8
Widoczne (ISO)
100
AcDbLine
 10
1971.898130066007
 20
3779.204714958359
 30
0.0
 11
1971.898130066007
 21
3777.538048291682
 31
0.0
  0
LINE
  5
277
330
6C
100
AcDbEntity
  8
Widoczne (ISO)
100
AcDbLine
 10
1171.564796732837
 20
3767.53804829168
 30
0.0
 11
1171.564796732837
 21
3742.038048291681
 31
0.0
  0
LINE
  5
278
330
6C
100
AcDbEntity
  8
Widoczne (ISO)
100
AcDbLine
 10
1171.564796732837
 20
3728.704714958348
 30
0.0
 11
1171.564796732837
 21
3704.204714958346
 31
0.0
  0
LINE
  5
279
330
6C
100
AcDbEntity
  8
Widoczne (ISO)
100
AcDbLine
 10
1171.564796732837
 20
3704.204714958346
 30
0.0
 11
2270.564796732838
 21
3704.204714958347
 31
0.0
  0
LINE
  5
27A
330
6C
100
AcDbEntity
  8
Widoczne (ISO)
100
AcDbLine
 10
2270.564796732838
 20
3704.204714958347
 30
0.0
 11
2270.564796732837
 21
3767.53804829168
 31
0.0
  0
LINE
  5
27B
330
6C
100
AcDbEntity
  8
Widoczne (ISO)
100
AcDbLine
 10
2270.564796732837
 20
3767.53804829168
 30
0.0
 11
1171.564796732837
 21
3767.53804829168
 31
0.0
  0
LINE
  5
27C
330
6C
100
AcDbEntity
  8
Widoczne (ISO)
100
AcDbLine
 10
1121.253880066174
 20
3718.704714958347
 30
0.0
 11
1121.253880066174
 21
3708.704714958346
 31
0.0
  0
LINE
  5
27D
330
6C
100
AcDbEntity
  8
Widoczne (ISO)
100
AcDbLine
 10
1130.231463399506
 20
3708.704714958346
 30
0.0
 11
1129.997537159957
 21
3708.704714958346
 31
0.0
  0
LINE
  5
27E
330
6C
100
AcDbEntity
  8
Widoczne (ISO)
100
AcDbLine
 10
1126.508929057571
 20
3708.704714958346
 30
0.0
 11
1121.253880066175
 21
3708.704714958346
 31
0.0
  0
LINE
  5
27F
330
6C
100
AcDbEntity
  8
Widoczne (ISO)
100
AcDbLine
 10
1126.898130066175
 20
3718.704714958347
 30
0.0
 11
1121.253880066175
 21
3718.704714958347
 31
0.0
  0
LINE
  5
280
330
6C
100
AcDbEntity
  8
Widoczne (ISO)
100
AcDbLine
 10
1121.253880066175
 20
3762.03804829168
 30
0.0
 11
1121.253880066175
 21
3752.03804829168
 31
0.0
  0
LINE
  5
281
330
6C
100
AcDbEntity
  8
Widoczne (ISO)
100
AcDbLine
 10
1126.898130066174
 20
3752.03804829168
 30
0.0
 11
1121.253880066175
 21
3752.03804829168
 31
0.0
  0
LINE
  5
282
330
6C
100
AcDbEntity
  8
Widoczne (ISO)
100
AcDbLine
 10
1130.231463399506
 20
3762.03804829168
 30
0.0
 11
1129.997537159957
 21
3762.03804829168
 31
0.0
  0
LINE
  5
283
330
6C
100
AcDbEntity
  8
Widoczne (ISO)
100
AcDbLine
 10
1126.508929057572
 20
3762.03804829168
 30
0.0
 11
1121.253880066175
 21
3762.03804829168
 31
0.0
  0
ARC
  5
284
330
6C
100
AcDbEntity
  8
Widoczne (ISO)
100
AcDbCircle
 10
1061.981463399513
 20
3960.355189958831
 30
0.0
 40
1.75
100
AcDbArc
 50
180.0
 51
0.0
  0
LINE
  5
285
330
6C
100
AcDbEntity
  8
Widoczne (ISO)
100
AcDbLine
 10
1063.731463399513
 20
3960.355189958831
 30
0.0
 11
1063.731463399601
 21
3977.605189958741
 31
0.0
  0
ARC
  5
286
330
6C
100
AcDbEntity
  8
Widoczne (ISO)
100
AcDbCircle
 10
1059.398130066179
 20
3977.605189958831
 30
0.0
 40
4.333333333333333
100
AcDbArc
 50
0.0
 51
89.99999999998633
  0
LINE
  5
287
330
6C
100
AcDbEntity
  8
Widoczne (ISO)
100
AcDbLine
 10
1059.39813006618
 20
3981.938523292165
 30
0.0
 11
901.3981300661784
 21
3981.938523292165
 31
0.0
  0
ARC
  5
288
330
6C
100
AcDbEntity
  8
Widoczne (ISO)
100
AcDbCircle
 10
901.3981300661798
 20
3977.605189958831
 30
0.0
 40
4.333333333333335
100
AcDbArc
 50
90.0000000000176
 51
180.0
  0
LINE
  5
289
330
6C
100
AcDbEntity
  8
Widoczne (ISO)
100
AcDbLine
 10
897.0647967328465
 20
3977.605189958829
 30
0.0
 11
897.064796732846
 21
3962.938523292165
 31
0.0
  0
ARC
  5
28A
330
6C
100
AcDbEntity
  8
Widoczne (ISO)
100
AcDbCircle
 10
901.3981300661793
 20
3962.938523292165
 30
0.0
 40
4.33333333333342
100
AcDbArc
 50
180.0
 51
270.0000000000019
  0
LINE
  5
28B
330
6C
100
AcDbEntity
  8
Widoczne (ISO)
100
AcDbLine
 10
901.3981300661793
 20
3958.605189958831
 30
0.0
 11
910.3981300661791
 21
3958.605189958831
 31
0.0
  0
LINE
  5
28C
330
6C
100
AcDbEntity
  8
Widoczne (ISO)
100
AcDbLine
 10
910.3981300661791
 20
3958.605189958831
 30
0.0
 11
910.3981300661791
 21
3960.271856625498
 31
0.0
  0
LINE
  5
28D
330
6C
100
AcDbEntity
  8
Widoczne (ISO)
100
AcDbLine
 10
910.3981300661791
 20
3960.271856625498
 30
0.0
 11
901.3981300661793
 21
3960.271856625498
 31
0.0
  0
ARC
  5
28E
330
6C
100
AcDbEntity
  8
Widoczne (ISO)
100
AcDbCircle
 10
901.3981300661793
 20
3962.938523292165
 30
0.0
 40
2.666666666666754
100
AcDbArc
 50
180.0
 51
270.0
  0
LINE
  5
28F
330
6C
100
AcDbEntity
  8
Widoczne (ISO)
100
AcDbLine
 10
898.7314633995126
 20
3962.938523292165
 30
0.0
 11
898.7314633995133
 21
3977.605189958829
 31
0.0
  0
ARC
  5
290
330
6C
100
AcDbEntity
  8
Widoczne (ISO)
100
AcDbCircle
 10
901.3981300661798
 20
3977.605189958831
 30
0.0
 40
2.666666666666639
100
AcDbArc
 50
90.00000000002223
 51
180.0
  0
LINE
  5
291
330
6C
100
AcDbEntity
  8
Widoczne (ISO)
100
AcDbLine
 10
901.3981300661784
 20
3980.271856625498
 30
0.0
 11
1059.39813006618
 21
3980.271856625498
 31
0.0
  0
ARC
  5
292
330
6C
100
AcDbEntity
  8
Widoczne (ISO)
100
AcDbCircle
 10
1059.398130066179
 20
3977.605189958831
 30
0.0
 40
2.666666666666666
100
AcDbArc
 50
0.0
 51
89.99999999997458
  0
LINE
  5
293
330
6C
100
AcDbEntity
  8
Widoczne (ISO)
100
AcDbLine
 10
1062.064796732935
 20
3977.605189958741
 30
0.0
 11
1062.064796732846
 21
3960.355189958831
 31
0.0
  0
ARC
  5
294
330
6C
100
AcDbEntity
  8
Widoczne (ISO)
100
AcDbCircle
 10
1061.981463399513
 20
3960.355189958831
 30
0.0
 40
0.0833333333333334
100
AcDbArc
 50
180.0
 51
0.0
  0
LINE
  5
295
330
6C
100
AcDbEntity
  8
Widoczne (ISO)
100
AcDbLine
 10
1061.89813006618
 20
3960.355189958831
 30
0.0
 11
1061.89813006618
 21
3975.771856625498
 31
0.0
  0
ARC
  5
296
330
6C
100
AcDbEntity
  8
Widoczne (ISO)
100
AcDbCircle
 10
1057.564796732846
 20
3975.771856625498
 30
0.0
 40
4.333333333333335
100
AcDbArc
 50
0.0
 51
89.99999999999804
  0
LINE
  5
297
330
6C
100
AcDbEntity
  8
Widoczne (ISO)
100
AcDbLine
 10
1057.564796732846
 20
3980.105189958831
 30
0.0
 11
1030.231463399513
 21
3980.105189958831
 31
0.0
  0
LINE
  5
298
330
6C
100
AcDbEntity
  8
Widoczne (ISO)
100
AcDbLine
 10
1030.231463399513
 20
3980.105189958831
 30
0.0
 11
1030.231463399513
 21
3978.438523292164
 31
0.0
  0
LINE
  5
299
330
6C
100
AcDbEntity
  8
Widoczne (ISO)
100
AcDbLine
 10
1030.231463399513
 20
3978.438523292164
 30
0.0
 11
1057.564796732846
 21
3978.438523292164
 31
0.0
  0
ARC
  5
29A
330
6C
100
AcDbEntity
  8
Widoczne (ISO)
100
AcDbCircle
 10
1057.564796732846
 20
3975.771856625498
 30
0.0
 40
2.666666666666667
100
AcDbArc
 50
0.0
 51
89.99999999999682
  0
LINE
  5
29B
330
6C
100
AcDbEntity
  8
Widoczne (ISO)
100
AcDbLine
 10
1060.231463399513
 20
3975.771856625498
 30
0.0
 11
1060.231463399513
 21
3960.355189958831
 31
0.0
  0
ARC
  5
29C
330
6C
100
AcDbEntity
  8
Widoczne (ISO)
100
AcDbCircle
 10
2346.814796732841
 20
3960.355189958829
 30
0.0
 40
1.750000000000007
100
AcDbArc
 50
180.0
 51
0.0
  0
LINE
  5
29D
330
6C
100
AcDbEntity
  8
Widoczne (ISO)
100
AcDbLine
 10
2348.564796732842
 20
3960.355189958829
 30
0.0
 11
2348.564796732842
 21
3975.771856625497
 31
0.0
  0
ARC
  5
29E
330
6C
100
AcDbEntity
  8
Widoczne (ISO)
100
AcDbCircle
 10
2351.231463399508
 20
3975.771856625497
 30
0.0
 40
2.666666666666678
100
AcDbArc
 50
90.00000000000637
 51
180.0
  0
LINE
  5
29F
330
6C
100
AcDbEntity
  8
Widoczne (ISO)
100
AcDbLine
 10
2351.231463399508
 20
3978.438523292163
 30
0.0
 11
2378.564796732842
 21
3978.438523292163
 31
0.0
  0
LINE
  5
2A0
330
6C
100
AcDbEntity
  8
Widoczne (ISO)
100
AcDbLine
 10
2378.564796732842
 20
3978.438523292163
 30
0.0
 11
2378.564796732842
 21
3980.10518995883
 31
0.0
  0
LINE
  5
2A1
330
6C
100
AcDbEntity
  8
Widoczne (ISO)
100
AcDbLine
 10
2378.564796732842
 20
3980.10518995883
 30
0.0
 11
2351.231463399508
 21
3980.10518995883
 31
0.0
  0
ARC
  5
2A2
330
6C
100
AcDbEntity
  8
Widoczne (ISO)
100
AcDbCircle
 10
2351.231463399508
 20
3975.771856625497
 30
0.0
 40
4.333333333333351
100
AcDbArc
 50
90.00000000000389
 51
180.0
  0
LINE
  5
2A3
330
6C
100
AcDbEntity
  8
Widoczne (ISO)
100
AcDbLine
 10
2346.898130066175
 20
3975.771856625497
 30
0.0
 11
2346.898130066175
 21
3960.355189958829
 31
0.0
  0
ARC
  5
2A4
330
6C
100
AcDbEntity
  8
Widoczne (ISO)
100
AcDbCircle
 10
2346.814796732841
 20
3960.355189958829
 30
0.0
 40
0.0833333333333338
100
AcDbArc
 50
180.0
 51
0.0
  0
LINE
  5
2A5
330
6C
100
AcDbEntity
  8
Widoczne (ISO)
100
AcDbLine
 10
2346.731463399508
 20
3960.355189958829
 30
0.0
 11
2346.731463399419
 21
3977.605189958739
 31
0.0
  0
ARC
  5
2A6
330
6C
100
AcDbEntity
  8
Widoczne (ISO)
100
AcDbCircle
 10
2349.398130066175
 20
3977.605189958829
 30
0.0
 40
2.666666666666678
100
AcDbArc
 50
90.00000000001907
 51
180.0
  0
LINE
  5
2A7
330
6C
100
AcDbEntity
  8
Widoczne (ISO)
100
AcDbLine
 10
2349.398130066174
 20
3980.271856625497
 30
0.0
 11
2507.398130066176
 21
3980.271856625497
 31
0.0
  0
ARC
  5
2A8
330
6C
100
AcDbEntity
  8
Widoczne (ISO)
100
AcDbCircle
 10
2507.398130066175
 20
3977.605189958829
 30
0.0
 40
2.666666666666642
100
AcDbArc
 50
0.0
 51
89.99999999996818
  0
LINE
  5
2A9
330
6C
100
AcDbEntity
  8
Widoczne (ISO)
100
AcDbLine
 10
2510.064796732841
 20
3977.605189958828
 30
0.0
 11
2510.064796732842
 21
3962.938523292163
 31
0.0
  0
ARC
  5
2AA
330
6C
100
AcDbEntity
  8
Widoczne (ISO)
100
AcDbCircle
 10
2507.398130066175
 20
3962.938523292163
 30
0.0
 40
2.666666666666768
100
AcDbArc
 50
270.0
 51
0.0
  0
LINE
  5
2AB
330
6C
100
AcDbEntity
  8
Widoczne (ISO)
100
AcDbLine
 10
2507.398130066175
 20
3960.271856625496
 30
0.0
 11
2498.398130066175
 21
3960.271856625496
 31
0.0
  0
LINE
  5
2AC
330
6C
100
AcDbEntity
  8
Widoczne (ISO)
100
AcDbLine
 10
2498.398130066175
 20
3960.271856625496
 30
0.0
 11
2498.398130066175
 21
3958.605189958829
 31
0.0
  0
LINE
  5
2AD
330
6C
100
AcDbEntity
  8
Widoczne (ISO)
100
AcDbLine
 10
2498.398130066175
 20
3958.605189958829
 30
0.0
 11
2507.398130066175
 21
3958.605189958829
 31
0.0
  0
ARC
  5
2AE
330
6C
100
AcDbEntity
  8
Widoczne (ISO)
100
AcDbCircle
 10
2507.398130066175
 20
3962.938523292163
 30
0.0
 40
4.333333333333425
100
AcDbArc
 50
270.0
 51
0.0
  0
LINE
  5
2AF
330
6C
100
AcDbEntity
  8
Widoczne (ISO)
100
AcDbLine
 10
2511.731463399508
 20
3962.938523292163
 30
0.0
 11
2511.731463399508
 21
3977.605189958828
 31
0.0
  0
ARC
  5
2B0
330
6C
100
AcDbEntity
  8
Widoczne (ISO)
100
AcDbCircle
 10
2507.398130066175
 20
3977.605189958829
 30
0.0
 40
4.333333333333317
100
AcDbArc
 50
0.0
 51
89.99999999998433
  0
LINE
  5
2B1
330
6C
100
AcDbEntity
  8
Widoczne (ISO)
100
AcDbLine
 10
2507.398130066176
 20
3981.938523292163
 30
0.0
 11
2349.398130066174
 21
3981.938523292163
 31
0.0
  0
ARC
  5
2B2
330
6C
100
AcDbEntity
  8
Widoczne (ISO)
100
AcDbCircle
 10
2349.398130066175
 20
3977.605189958829
 30
0.0
 40
4.333333333333349
100
AcDbArc
 50
90.00000000001568
 51
180.0
  0
LINE
  5
2B3
330
6C
100
AcDbEntity
  8
Widoczne (ISO)
100
AcDbLine
 10
2345.064796732753
 20
3977.605189958739
 30
0.0
 11
2345.064796732842
 21
3960.355189958829
 31
0.0
  0
LINE
  5
2B4
330
6C
100
AcDbEntity
  8
Widoczne (ISO)
100
AcDbLine
 10
2354.231463399508
 20
3965.271856625497
 30
0.0
 11
2354.231463399508
 21
3978.605189958829
 31
0.0
  0
LINE
  5
2B5
330
6C
100
AcDbEntity
  8
Widoczne (ISO)
100
AcDbLine
 10
2354.231463399508
 20
3978.605189958829
 30
0.0
 11
2351.731463399508
 21
3978.605189958829
 31
0.0
  0
LINE
  5
2B6
330
6C
100
AcDbEntity
  8
Widoczne (ISO)
100
AcDbLine
 10
2351.731463399508
 20
3978.605189958829
 30
0.0
 11
2351.731463399508
 21
3965.271856625497
 31
0.0
  0
ARC
  5
2B7
330
6C
100
AcDbEntity
  8
Widoczne (ISO)
100
AcDbCircle
 10
2356.731463399508
 20
3965.271856625497
 30
0.0
 40
5.000000000000015
100
AcDbArc
 50
180.0
 51
270.0
  0
LINE
  5
2B8
330
6C
100
AcDbEntity
  8
Widoczne (ISO)
100
AcDbLine
 10
2356.731463399508
 20
3960.271856625496
 30
0.0
 11
2506.731463399508
 21
3960.271856625496
 31
0.0
  0
LINE
  5
2B9
330
6C
100
AcDbEntity
  8
Widoczne (ISO)
100
AcDbLine
 10
2506.731463399508
 20
3960.271856625496
 30
0.0
 11
2506.731463399508
 21
3962.771856625496
 31
0.0
  0
LINE
  5
2BA
330
6C
100
AcDbEntity
  8
Widoczne (ISO)
100
AcDbLine
 10
2506.731463399508
 20
3962.771856625496
 30
0.0
 11
2356.731463399508
 21
3962.771856625496
 31
0.0
  0
ARC
  5
2BB
330
6C
100
AcDbEntity
  8
Widoczne (ISO)
100
AcDbCircle
 10
2356.731463399508
 20
3965.271856625497
 30
0.0
 40
2.499999999999987
100
AcDbArc
 50
180.0
 51
270.0
  0
LINE
  5
2BC
330
6C
100
AcDbEntity
  8
Widoczne (ISO)
100
AcDbLine
 10
1054.564796732846
 20
3978.605189958832
 30
0.0
 11
1054.564796732846
 21
3965.271856625498
 31
0.0
  0
ARC
  5
2BD
330
6C
100
AcDbEntity
  8
Widoczne (ISO)
100
AcDbCircle
 10
1052.064796732846
 20
3965.271856625498
 30
0.0
 40
2.499999999999976
100
AcDbArc
 50
270.0
 51
0.0
  0
LINE
  5
2BE
330
6C
100
AcDbEntity
  8
Widoczne (ISO)
100
AcDbLine
 10
1052.064796732846
 20
3962.771856625499
 30
0.0
 11
902.0647967328464
 21
3962.771856625499
 31
0.0
  0
LINE
  5
2BF
330
6C
100
AcDbEntity
  8
Widoczne (ISO)
100
AcDbLine
 10
902.0647967328464
 20
3962.771856625499
 30
0.0
 11
902.0647967328464
 21
3960.271856625498
 31
0.0
  0
LINE
  5
2C0
330
6C
100
AcDbEntity
  8
Widoczne (ISO)
100
AcDbLine
 10
902.0647967328464
 20
3960.271856625498
 30
0.0
 11
1052.064796732846
 21
3960.271856625498
 31
0.0
  0
ARC
  5
2C1
330
6C
100
AcDbEntity
  8
Widoczne (ISO)
100
AcDbCircle
 10
1052.064796732846
 20
3965.271856625498
 30
0.0
 40
5.00000000000001
100
AcDbArc
 50
270.0
 51
0.0
  0
LINE
  5
2C2
330
6C
100
AcDbEntity
  8
Widoczne (ISO)
100
AcDbLine
 10
1057.064796732846
 20
3965.271856625498
 30
0.0
 11
1057.064796732846
 21
3978.605189958832
 31
0.0
  0
LINE
  5
2C3
330
6C
100
AcDbEntity
  8
Widoczne (ISO)
100
AcDbLine
 10
1057.064796732846
 20
3978.605189958832
 30
0.0
 11
1054.564796732846
 21
3978.605189958832
 31
0.0
  0
SPLINE
  5
2C4
330
6C
100
AcDbEntity
  8
Widoczne (ISO)
100
AcDbSpline
210
0.0
220
0.0
230
1.0
 70
    12
 71
     2
 72
     6
 73
     3
 74
     0
 42
0.0000000001
 43
0.0000000001
 40
0.0
 40
0.0
 40
0.0
 40
0.2918858998468151
 40
0.2918858998468151
 40
0.2918858998468151
 10
931.304064670531
 20
3973.60518995883
 30
0.0
 41
1.0
 10
932.647126372664
 20
3971.375232743968
 30
0.0
 41
1.002464175867513
 10
933.8150061144032
 20
3969.438523292164
 30
0.0
 41
1.0
  0
SPLINE
  5
2C5
330
6C
100
AcDbEntity
  8
Widoczne (ISO)
100
AcDbSpline
210
0.0
220
0.0
230
1.0
 70
    12
 71
     2
 72
     6
 73
     3
 74
     0
 42
0.0000000001
 43
0.0000000001
 40
0.0
 40
0.0
 40
0.0
 40
0.4124118197930455
 40
0.4124118197930455
 40
0.4124118197930455
 10
932.9776759325412
 20
3980.271856625498
 30
0.0
 41
1.0
 10
932.1789069217253
 20
3977.091303730345
 30
0.0
 41
1.001043315376914
 10
931.304064670531
 20
3973.60518995883
 30
0.0
 41
1.0
  0
SPLINE
  5
2C6
330
6C
100
AcDbEntity
  8
Widoczne (ISO)
100
AcDbSpline
210
0.0
220
0.0
230
1.0
 70
    12
 71
     2
 72
     6
 73
     3
 74
     0
 42
0.0000000001
 43
0.0000000001
 40
0.0
 40
0.0
 40
0.0
 40
0.4124118197930455
 40
0.4124118197930455
 40
0.4124118197930455
 10
969.4921954618298
 20
3973.60518995883
 30
0.0
 41
1.0
 10
968.6173532106355
 20
3977.091303730345
 30
0.0
 41
1.001043315376914
 10
967.8185841998194
 20
3980.271856625498
 30
0.0
 41
1.0
  0
SPLINE
  5
2C7
330
6C
100
AcDbEntity
  8
Widoczne (ISO)
100
AcDbSpline
210
0.0
220
0.0
230
1.0
 70
    12
 71
     2
 72
     6
 73
     3
 74
     0
 42
0.0000000001
 43
0.0000000001
 40
0.0
 40
0.0
 40
0.0
 40
0.2918858998468151
 40
0.2918858998468151
 40
0.2918858998468151
 10
966.9812540179572
 20
3969.438523292164
 30
0.0
 41
1.0
 10
968.1491337596966
 20
3971.375232743968
 30
0.0
 41
1.002464175867513
 10
969.4921954618298
 20
3973.60518995883
 30
0.0
 41
1.0
  0
SPLINE
  5
2C8
330
6C
100
AcDbEntity
  8
Widoczne (ISO)
100
AcDbSpline
210
0.0
220
0.0
230
1.0
 70
    28
 71
     2
 72
     6
 73
     3
 74
     0
 42
0.0000000001
 43
0.0000000001
 40
0.0
 40
0.0
 40
0.0
 40
0.2918858998468094
 40
0.2918858998468094
 40
0.2918858998468094
 10
952.0647967328471
 20
3973.60518995883
 30
0.0
 41
1.0
 10
952.0647967328471
 20
3971.375232742769
 30
0.0
 41
1.002464176047174
 10
952.0647967328471
 20
3969.438523292164
 30
0.0
 41
1.0
  0
SPLINE
  5
2C9
330
6C
100
AcDbEntity
  8
Widoczne (ISO)
100
AcDbSpline
210
0.0
220
0.0
230
1.0
 70
    28
 71
     2
 72
     6
 73
     3
 74
     0
 42
0.0000000001
 43
0.0000000001
 40
0.0
 40
0.0
 40
0.0
 40
0.4124118197930402
 40
0.4124118197930402
 40
0.4124118197930402
 10
952.0647967328471
 20
3980.271856625498
 30
0.0
 41
1.0
 10
952.0647967328471
 20
3977.091303728851
 30
0.0
 41
1.001043315253878
 10
952.0647967328471
 20
3973.60518995883
 30
0.0
 41
1.0
  0
SPLINE
  5
2CA
330
6C
100
AcDbEntity
  8
Widoczne (ISO)
100
AcDbSpline
210
0.0
220
0.0
230
1.0
 70
    28
 71
     2
 72
     6
 73
     3
 74
     0
 42
0.0000000001
 43
0.0000000001
 40
0.0
 40
0.0
 40
0.0
 40
0.4124118197930402
 40
0.4124118197930402
 40
0.4124118197930402
 10
948.7314633995138
 20
3973.60518995883
 30
0.0
 41
1.0
 10
948.7314633995138
 20
3977.091303728851
 30
0.0
 41
1.001043315253878
 10
948.7314633995138
 20
3980.271856625498
 30
0.0
 41
1.0
  0
SPLINE
  5
2CB
330
6C
100
AcDbEntity
  8
Widoczne (ISO)
100
AcDbSpline
210
0.0
220
0.0
230
1.0
 70
    28
 71
     2
 72
     6
 73
     3
 74
     0
 42
0.0000000001
 43
0.0000000001
 40
0.0
 40
0.0
 40
0.0
 40
0.2918858998468094
 40
0.2918858998468094
 40
0.2918858998468094
 10
948.7314633995138
 20
3969.438523292164
 30
0.0
 41
1.0
 10
948.7314633995138
 20
3971.375232742769
 30
0.0
 41
1.002464176047174
 10
948.7314633995138
 20
3973.60518995883
 30
0.0
 41
1.0
  0
LINE
  5
2CC
330
6C
100
AcDbEntity
  8
Widoczne (ISO)
100
AcDbLine
 10
952.0647967328471
 20
3973.60518995883
 30
0.0
 11
969.4921954618296
 21
3973.60518995883
 31
0.0
  0
LINE
  5
2CD
330
6C
100
AcDbEntity
  8
Widoczne (ISO)
100
AcDbLine
 10
952.0647967328471
 20
3969.438523292164
 30
0.0
 11
966.9812540179572
 21
3969.438523292164
 31
0.0
  0
LINE
  5
2CE
330
6C
100
AcDbEntity
  8
Widoczne (ISO)
100
AcDbLine
 10
932.8981300661803
 20
3985.271856625497
 30
0.0
 11
967.8981300661801
 21
3985.271856625497
 31
0.0
  0
LINE
  5
2CF
330
6C
100
AcDbEntity
  8
Widoczne (ISO)
100
AcDbLine
 10
931.304064670531
 20
3973.60518995883
 30
0.0
 11
948.7314633995138
 21
3973.60518995883
 31
0.0
  0
LINE
  5
2D0
330
6C
100
AcDbEntity
  8
Widoczne (ISO)
100
AcDbLine
 10
933.8150061144032
 20
3969.438523292164
 30
0.0
 11
948.7314633995138
 21
3969.438523292164
 31
0.0
  0
ARC
  5
2D1
330
6C
100
AcDbEntity
  8
Widoczne (ISO)
100
AcDbCircle
 10
932.8981300661803
 20
3981.938523292163
 30
0.0
 40
3.333333333333336
100
AcDbArc
 50
90.0
 51
180.0
  0
ARC
  5
2D2
330
6C
100
AcDbEntity
  8
Widoczne (ISO)
100
AcDbCircle
 10
967.8981300661803
 20
3981.938523292163
 30
0.0
 40
3.333333333333336
100
AcDbArc
 50
0.0
 51
90.0
  0
SPLINE
  5
2D3
330
6C
100
AcDbEntity
  8
Widoczne (ISO)
100
AcDbSpline
210
0.0
220
0.0
230
1.0
 70
    12
 71
     2
 72
     6
 73
     3
 74
     0
 42
0.0000000001
 43
0.0000000001
 40
0.0
 40
0.0
 40
0.0
 40
0.2918858998468151
 40
0.2918858998468151
 40
0.2918858998468151
 10
2439.304064670526
 20
3973.605189958829
 30
0.0
 41
1.0
 10
2440.647126372659
 20
3971.375232743966
 30
0.0
 41
1.002464175867513
 10
2441.815006114398
 20
3969.438523292163
 30
0.0
 41
1.0
  0
SPLINE
  5
2D4
330
6C
100
AcDbEntity
  8
Widoczne (ISO)
100
AcDbSpline
210
0.0
220
0.0
230
1.0
 70
    12
 71
     2
 72
     6
 73
     3
 74
     0
 42
0.0000000001
 43
0.0000000001
 40
0.0
 40
0.0
 40
0.0
 40
0.4124118197930455
 40
0.4124118197930455
 40
0.4124118197930455
 10
2440.977675932536
 20
3980.271856625496
 30
0.0
 41
1.0
 10
2440.17890692172
 20
3977.091303730344
 30
0.0
 41
1.001043315376914
 10
2439.304064670526
 20
3973.605189958829
 30
0.0
 41
1.0
  0
SPLINE
  5
2D5
330
6C
100
AcDbEntity
  8
Widoczne (ISO)
100
AcDbSpline
210
0.0
220
0.0
230
1.0
 70
    12
 71
     2
 72
     6
 73
     3
 74
     0
 42
0.0000000001
 43
0.0000000001
 40
0.0
 40
0.0
 40
0.0
 40
0.4124118197930455
 40
0.4124118197930455
 40
0.4124118197930455
 10
2477.492195461824
 20
3973.605189958829
 30
0.0
 41
1.0
 10
2476.61735321063
 20
3977.091303730344
 30
0.0
 41
1.001043315376914
 10
2475.818584199814
 20
3980.271856625496
 30
0.0
 41
1.0
  0
SPLINE
  5
2D6
330
6C
100
AcDbEntity
  8
Widoczne (ISO)
100
AcDbSpline
210
0.0
220
0.0
230
1.0
 70
    12
 71
     2
 72
     6
 73
     3
 74
     0
 42
0.0000000001
 43
0.0000000001
 40
0.0
 40
0.0
 40
0.0
 40
0.2918858998468151
 40
0.2918858998468151
 40
0.2918858998468151
 10
2474.981254017952
 20
3969.438523292163
 30
0.0
 41
1.0
 10
2476.149133759691
 20
3971.375232743966
 30
0.0
 41
1.002464175867513
 10
2477.492195461824
 20
3973.605189958829
 30
0.0
 41
1.0
  0
SPLINE
  5
2D7
330
6C
100
AcDbEntity
  8
Widoczne (ISO)
100
AcDbSpline
210
0.0
220
0.0
230
1.0
 70
    28
 71
     2
 72
     6
 73
     3
 74
     0
 42
0.0000000001
 43
0.0000000001
 40
0.0
 40
0.0
 40
0.0
 40
0.2918858998468094
 40
0.2918858998468094
 40
0.2918858998468094
 10
2460.064796732842
 20
3973.605189958829
 30
0.0
 41
1.0
 10
2460.064796732842
 20
3971.375232742768
 30
0.0
 41
1.002464176047174
 10
2460.064796732842
 20
3969.438523292163
 30
0.0
 41
1.0
  0
SPLINE
  5
2D8
330
6C
100
AcDbEntity
  8
Widoczne (ISO)
100
AcDbSpline
210
0.0
220
0.0
230
1.0
 70
    28
 71
     2
 72
     6
 73
     3
 74
     0
 42
0.0000000001
 43
0.0000000001
 40
0.0
 40
0.0
 40
0.0
 40
0.4124118197930402
 40
0.4124118197930402
 40
0.4124118197930402
 10
2460.064796732842
 20
3980.271856625496
 30
0.0
 41
1.0
 10
2460.064796732842
 20
3977.09130372885
 30
0.0
 41
1.001043315253878
 10
2460.064796732842
 20
3973.605189958829
 30
0.0
 41
1.0
  0
SPLINE
  5
2D9
330
6C
100
AcDbEntity
  8
Widoczne (ISO)
100
AcDbSpline
210
0.0
220
0.0
230
1.0
 70
    28
 71
     2
 72
     6
 73
     3
 74
     0
 42
0.0000000001
 43
0.0000000001
 40
0.0
 40
0.0
 40
0.0
 40
0.4124118197930402
 40
0.4124118197930402
 40
0.4124118197930402
 10
2456.731463399508
 20
3973.605189958829
 30
0.0
 41
1.0
 10
2456.731463399508
 20
3977.09130372885
 30
0.0
 41
1.001043315253878
 10
2456.731463399508
 20
3980.271856625496
 30
0.0
 41
1.0
  0
SPLINE
  5
2DA
330
6C
100
AcDbEntity
  8
Widoczne (ISO)
100
AcDbSpline
210
0.0
220
0.0
230
1.0
 70
    28
 71
     2
 72
     6
 73
     3
 74
     0
 42
0.0000000001
 43
0.0000000001
 40
0.0
 40
0.0
 40
0.0
 40
0.2918858998468094
 40
0.2918858998468094
 40
0.2918858998468094
 10
2456.731463399508
 20
3969.438523292163
 30
0.0
 41
1.0
 10
2456.731463399508
 20
3971.375232742768
 30
0.0
 41
1.002464176047174
 10
2456.731463399508
 20
3973.605189958829
 30
0.0
 41
1.0
  0
LINE
  5
2DB
330
6C
100
AcDbEntity
  8
Widoczne (ISO)
100
AcDbLine
 10
2460.064796732842
 20
3973.605189958829
 30
0.0
 11
2477.492195461824
 21
3973.605189958829
 31
0.0
  0
LINE
  5
2DC
330
6C
100
AcDbEntity
  8
Widoczne (ISO)
100
AcDbLine
 10
2460.064796732842
 20
3969.438523292163
 30
0.0
 11
2474.981254017952
 21
3969.438523292163
 31
0.0
  0
LINE
  5
2DD
330
6C
100
AcDbEntity
  8
Widoczne (ISO)
100
AcDbLine
 10
2440.898130066175
 20
3985.271856625497
 30
0.0
 11
2475.898130066175
 21
3985.271856625497
 31
0.0
  0
LINE
  5
2DE
330
6C
100
AcDbEntity
  8
Widoczne (ISO)
100
AcDbLine
 10
2439.304064670526
 20
3973.605189958829
 30
0.0
 11
2456.731463399508
 21
3973.605189958829
 31
0.0
  0
LINE
  5
2DF
330
6C
100
AcDbEntity
  8
Widoczne (ISO)
100
AcDbLine
 10
2441.815006114398
 20
3969.438523292163
 30
0.0
 11
2456.731463399508
 21
3969.438523292163
 31
0.0
  0
ARC
  5
2E0
330
6C
100
AcDbEntity
  8
Widoczne (ISO)
100
AcDbCircle
 10
2440.898130066175
 20
3981.938523292163
 30
0.0
 40
3.333333333333336
100
AcDbArc
 50
90.0
 51
180.0
  0
ARC
  5
2E1
330
6C
100
AcDbEntity
  8
Widoczne (ISO)
100
AcDbCircle
 10
2475.898130066175
 20
3981.938523292163
 30
0.0
 40
3.333333333333336
100
AcDbArc
 50
0.0
 51
90.0
  0
LINE
  5
2E2
330
6C
100
AcDbEntity
  8
Widoczne (ISO)
100
AcDbLine
 10
2350.231463399508
 20
3978.438523292164
 30
0.0
 11
2348.564796732842
 21
3978.438523292164
 31
0.0
  0
LINE
  5
2E3
330
6C
100
AcDbEntity
  8
Widoczne (ISO)
100
AcDbLine
 10
2348.564796732842
 20
3978.438523292164
 30
0.0
 11
2348.564796732842
 21
3828.438523292163
 31
0.0
  0
LINE
  5
2E4
330
6C
100
AcDbEntity
  8
Widoczne (ISO)
100
AcDbLine
 10
2348.564796732842
 20
3828.438523292163
 30
0.0
 11
2350.231463399508
 21
3828.438523292163
 31
0.0
  0
LINE
  5
2E5
330
6C
100
AcDbEntity
  8
Widoczne (ISO)
100
AcDbLine
 10
2350.231463399508
 20
3828.438523292163
 30
0.0
 11
2350.231463399508
 21
3978.438523292164
 31
0.0
  0
LINE
  5
2E6
330
6C
100
AcDbEntity
  8
Widoczne (ISO)
100
AcDbLine
 10
1058.564796732846
 20
3828.438523292165
 30
0.0
 11
1060.231463399513
 21
3828.438523292165
 31
0.0
  0
LINE
  5
2E7
330
6C
100
AcDbEntity
  8
Widoczne (ISO)
100
AcDbLine
 10
1060.231463399513
 20
3828.438523292165
 30
0.0
 11
1060.231463399513
 21
3978.438523292164
 31
0.0
  0
LINE
  5
2E8
330
6C
100
AcDbEntity
  8
Widoczne (ISO)
100
AcDbLine
 10
1060.231463399513
 20
3978.438523292164
 30
0.0
 11
1058.564796732846
 21
3978.438523292164
 31
0.0
  0
LINE
  5
2E9
330
6C
100
AcDbEntity
  8
Widoczne (ISO)
100
AcDbLine
 10
1058.564796732846
 20
3978.438523292164
 30
0.0
 11
1058.564796732846
 21
3828.438523292165
 31
0.0
  0
LINE
  5
2EA
330
6C
100
AcDbEntity
  8
Widoczne (ISO)
100
AcDbLine
 10
939.1481300661805
 20
3966.105189958831
 30
0.0
 11
961.6481300661805
 21
3966.105189958831
 31
0.0
  0
LINE
  5
2EB
330
6C
100
AcDbEntity
  8
Widoczne (ISO)
100
AcDbLine
 10
939.1481300661805
 20
3967.771856625498
 30
0.0
 11
961.6481300661805
 21
3967.771856625498
 31
0.0
  0
LINE
  5
2EC
330
6C
100
AcDbEntity
  8
Widoczne (ISO)
100
AcDbLine
 10
961.6481300661803
 20
3967.771856625498
 30
0.0
 11
961.6481300661803
 21
3966.105189958831
 31
0.0
  0
LINE
  5
2ED
330
6C
100
AcDbEntity
  8
Widoczne (ISO)
100
AcDbLine
 10
939.1481300661805
 20
3967.771856625498
 30
0.0
 11
939.1481300661805
 21
3966.105189958831
 31
0.0
  0
LINE
  5
2EE
330
6C
100
AcDbEntity
  8
Widoczne (ISO)
100
AcDbLine
 10
941.6481300661805
 20
3962.771856625498
 30
0.0
 11
939.1481300661807
 21
3966.105189958831
 31
0.0
  0
LINE
  5
2EF
330
6C
100
AcDbEntity
  8
Widoczne (ISO)
100
AcDbLine
 10
959.1481300661802
 20
3962.771856625498
 30
0.0
 11
961.6481300661805
 21
3966.105189958831
 31
0.0
  0
LINE
  5
2F0
330
6C
100
AcDbEntity
  8
Widoczne (ISO)
100
AcDbLine
 10
945.3981300661801
 20
3958.605189958831
 30
0.0
 11
944.8425745106247
 21
3960.271856625498
 31
0.0
  0
LINE
  5
2F1
330
6C
100
AcDbEntity
  8
Widoczne (ISO)
100
AcDbLine
 10
955.3981300661806
 20
3958.605189958831
 30
0.0
 11
955.9536856217359
 21
3960.271856625498
 31
0.0
  0
LINE
  5
2F2
330
6C
100
AcDbEntity
  8
Widoczne (ISO)
100
AcDbLine
 10
2447.148130066175
 20
3966.10518995883
 30
0.0
 11
2469.648130066175
 21
3966.10518995883
 31
0.0
  0
LINE
  5
2F3
330
6C
100
AcDbEntity
  8
Widoczne (ISO)
100
AcDbLine
 10
2447.148130066175
 20
3967.771856625496
 30
0.0
 11
2469.648130066175
 21
3967.771856625496
 31
0.0
  0
LINE
  5
2F4
330
6C
100
AcDbEntity
  8
Widoczne (ISO)
100
AcDbLine
 10
2469.648130066175
 20
3967.771856625496
 30
0.0
 11
2469.648130066175
 21
3966.10518995883
 31
0.0
  0
LINE
  5
2F5
330
6C
100
AcDbEntity
  8
Widoczne (ISO)
100
AcDbLine
 10
2447.148130066175
 20
3967.771856625496
 30
0.0
 11
2447.148130066175
 21
3966.10518995883
 31
0.0
  0
LINE
  5
2F6
330
6C
100
AcDbEntity
  8
Widoczne (ISO)
100
AcDbLine
 10
2449.648130066175
 20
3962.771856625496
 30
0.0
 11
2447.148130066175
 21
3966.10518995883
 31
0.0
  0
LINE
  5
2F7
330
6C
100
AcDbEntity
  8
Widoczne (ISO)
100
AcDbLine
 10
2467.148130066175
 20
3962.771856625496
 30
0.0
 11
2469.648130066175
 21
3966.10518995883
 31
0.0
  0
LINE
  5
2F8
330
6C
100
AcDbEntity
  8
Widoczne (ISO)
100
AcDbLine
 10
2453.398130066174
 20
3958.605189958831
 30
0.0
 11
2452.842574510619
 21
3960.271856625496
 31
0.0
  0
LINE
  5
2F9
330
6C
100
AcDbEntity
  8
Widoczne (ISO)
100
AcDbLine
 10
2463.398130066176
 20
3958.605189958831
 30
0.0
 11
2463.953685621731
 21
3960.271856625496
 31
0.0
  0
LINE
  5
2FA
330
6C
100
AcDbEntity
  8
Widoczne (ISO)
100
AcDbLine
 10
1063.564796732841
 20
3796.204714958348
 30
0.0
 11
1063.564796732841
 21
3797.871381625014
 31
0.0
  0
LINE
  5
2FB
330
6C
100
AcDbEntity
  8
Widoczne (ISO)
100
AcDbLine
 10
1063.564796732841
 20
3797.871381625014
 30
0.0
 11
843.5647967328417
 21
3797.871381625014
 31
0.0
  0
LINE
  5
2FC
330
6C
100
AcDbEntity
  8
Widoczne (ISO)
100
AcDbLine
 10
843.5647967328417
 20
3797.871381625014
 30
0.0
 11
843.5647967328417
 21
3796.204714958348
 31
0.0
  0
LINE
  5
2FD
330
6C
100
AcDbEntity
  8
Widoczne (ISO)
100
AcDbLine
 10
843.5647967328417
 20
3796.204714958348
 30
0.0
 11
1063.564796732841
 21
3796.204714958348
 31
0.0
  0
LINE
  5
2FE
330
6C
100
AcDbEntity
  8
Widoczne (ISO)
100
AcDbLine
 10
1063.564796732841
 20
3810.993020535359
 30
0.0
 11
1035.231463399507
 21
3810.993020535359
 31
0.0
  0
LINE
  5
2FF
330
6C
100
AcDbEntity
  8
Widoczne (ISO)
100
AcDbLine
 10
1035.231463399507
 20
3812.703014100958
 30
0.0
 11
1063.564796732841
 21
3812.703014100958
 31
0.0
  0
LINE
  5
300
330
6C
100
AcDbEntity
  8
Widoczne (ISO)
100
AcDbLine
 10
1070.231463399508
 20
3815.788048291681
 30
0.0
 11
1068.564796732842
 21
3815.788048291681
 31
0.0
  0
LINE
  5
301
330
6C
100
AcDbEntity
  8
Widoczne (ISO)
100
AcDbLine
 10
1068.564796732842
 20
3815.788048291681
 30
0.0
 11
1065.231463399508
 21
3813.28804829168
 31
0.0
  0
LINE
  5
302
330
6C
100
AcDbEntity
  8
Widoczne (ISO)
100
AcDbLine
 10
1065.231463399508
 20
3813.28804829168
 30
0.0
 11
1063.564796732842
 21
3813.28804829168
 31
0.0
  0
LINE
  5
303
330
6C
100
AcDbEntity
  8
Widoczne (ISO)
100
AcDbLine
 10
1063.564796732842
 20
3813.28804829168
 30
0.0
 11
1063.564796732842
 21
3810.371381625014
 31
0.0
  0
LINE
  5
304
330
6C
100
AcDbEntity
  8
Widoczne (ISO)
100
AcDbLine
 10
1063.564796732842
 20
3810.371381625014
 30
0.0
 11
1058.564796732841
 21
3808.704714958348
 31
0.0
  0
LINE
  5
305
330
6C
100
AcDbEntity
  8
Widoczne (ISO)
100
AcDbLine
 10
1058.564796732841
 20
3808.704714958348
 30
0.0
 11
826.8981300661744
 21
3808.704714958348
 31
0.0
  0
LINE
  5
306
330
6C
100
AcDbEntity
  8
Widoczne (ISO)
100
AcDbLine
 10
826.8981300661744
 20
3808.704714958348
 30
0.0
 11
826.8981300661744
 21
3800.371381625014
 31
0.0
  0
LINE
  5
307
330
6C
100
AcDbEntity
  8
Widoczne (ISO)
100
AcDbLine
 10
826.8981300661744
 20
3800.371381625014
 30
0.0
 11
1058.564796732841
 21
3800.371381625014
 31
0.0
  0
LINE
  5
308
330
6C
100
AcDbEntity
  8
Widoczne (ISO)
100
AcDbLine
 10
1058.564796732841
 20
3800.371381625014
 30
0.0
 11
1063.564796732842
 21
3798.704714958347
 31
0.0
  0
LINE
  5
309
330
6C
100
AcDbEntity
  8
Widoczne (ISO)
100
AcDbLine
 10
1063.564796732842
 20
3798.704714958347
 30
0.0
 11
1063.564796732842
 21
3795.788048291681
 31
0.0
  0
LINE
  5
30A
330
6C
100
AcDbEntity
  8
Widoczne (ISO)
100
AcDbLine
 10
1063.564796732842
 20
3795.788048291681
 30
0.0
 11
1065.231463399508
 21
3795.788048291681
 31
0.0
  0
LINE
  5
30B
330
6C
100
AcDbEntity
  8
Widoczne (ISO)
100
AcDbLine
 10
1065.231463399508
 20
3795.788048291681
 30
0.0
 11
1068.564796732842
 21
3793.288048291681
 31
0.0
  0
LINE
  5
30C
330
6C
100
AcDbEntity
  8
Widoczne (ISO)
100
AcDbLine
 10
1068.564796732842
 20
3793.288048291681
 30
0.0
 11
1070.231463399508
 21
3793.288048291681
 31
0.0
  0
LINE
  5
30D
330
6C
100
AcDbEntity
  8
Widoczne (ISO)
100
AcDbLine
 10
1070.231463399508
 20
3793.288048291681
 30
0.0
 11
1070.231463399508
 21
3797.870793693912
 31
0.0
  0
LINE
  5
30E
330
6C
100
AcDbEntity
  8
Widoczne (ISO)
100
AcDbLine
 10
1070.231463399508
 20
3797.870793693912
 30
0.0
 11
1065.231463399508
 21
3797.870793693912
 31
0.0
  0
LINE
  5
30F
330
6C
100
AcDbEntity
  8
Widoczne (ISO)
100
AcDbLine
 10
1065.231463399508
 20
3797.870793693912
 30
0.0
 11
1065.231463399508
 21
3811.205302889449
 31
0.0
  0
LINE
  5
310
330
6C
100
AcDbEntity
  8
Widoczne (ISO)
100
AcDbLine
 10
1065.231463399508
 20
3811.205302889449
 30
0.0
 11
1070.231463399508
 21
3811.205302889449
 31
0.0
  0
LINE
  5
311
330
6C
100
AcDbEntity
  8
Widoczne (ISO)
100
AcDbLine
 10
1070.231463399508
 20
3811.205302889449
 30
0.0
 11
1070.231463399508
 21
3815.788048291681
 31
0.0
  0
LINE
  5
312
330
6C
100
AcDbEntity
  8
Widoczne (ISO)
100
AcDbLine
 10
1070.231463399508
 20
3803.271558631954
 30
0.0
 11
1070.231463399508
 21
3797.870793693912
 31
0.0
  0
LINE
  5
313
330
6C
100
AcDbEntity
  8
Widoczne (ISO)
100
AcDbLine
 10
1070.231463399508
 20
3803.271558631954
 30
0.0
 11
1065.231463399508
 21
3803.271558631954
 31
0.0
  0
LINE
  5
314
330
6C
100
AcDbEntity
  8
Widoczne (ISO)
100
AcDbLine
 10
1070.231463399508
 20
3805.699405333187
 30
0.0
 11
1070.231463399508
 21
3803.271558631954
 31
0.0
  0
LINE
  5
315
330
6C
100
AcDbEntity
  8
Widoczne (ISO)
100
AcDbLine
 10
1070.231463399508
 20
3805.699405333187
 30
0.0
 11
1065.231463399508
 21
3805.699405333187
 31
0.0
  0
LINE
  5
316
330
6C
100
AcDbEntity
  8
Widoczne (ISO)
100
AcDbLine
 10
1070.231463399508
 20
3805.771338177232
 30
0.0
 11
1070.231463399508
 21
3805.699405333187
 31
0.0
  0
LINE
  5
317
330
6C
100
AcDbEntity
  8
Widoczne (ISO)
100
AcDbLine
 10
1070.231463399508
 20
3805.771338177232
 30
0.0
 11
1065.231463399508
 21
3805.771338177232
 31
0.0
  0
LINE
  5
318
330
6C
100
AcDbEntity
  8
Widoczne (ISO)
100
AcDbLine
 10
1070.231463399508
 20
3811.187527192004
 30
0.0
 11
1070.231463399508
 21
3805.771338177232
 31
0.0
  0
LINE
  5
319
330
6C
100
AcDbEntity
  8
Widoczne (ISO)
100
AcDbLine
 10
1070.231463399508
 20
3811.187527192004
 30
0.0
 11
1065.231463399508
 21
3811.187527192004
 31
0.0
  0
LINE
  5
31A
330
6C
100
AcDbEntity
  8
Widoczne (ISO)
100
AcDbLine
 10
1070.231463399508
 20
3811.205302889449
 30
0.0
 11
1070.231463399508
 21
3811.187527192004
 31
0.0
  0
ARC
  5
31B
330
6C
100
AcDbEntity
  8
Widoczne (ISO)
100
AcDbCircle
 10
833.2246218946069
 20
3810.371381625014
 30
0.0
 40
1.666666666666623
100
AcDbArc
 50
126.869897645844
 51
180.0
  0
LINE
  5
31C
330
6C
100
AcDbEntity
  8
Widoczne (ISO)
100
AcDbLine
 10
831.5579552279405
 20
3810.371381625014
 30
0.0
 11
831.5579552279402
 21
3809.538048291681
 31
0.0
  0
LINE
  5
31D
330
6C
100
AcDbEntity
  8
Widoczne (ISO)
100
AcDbLine
 10
831.5579552279402
 20
3809.538048291681
 30
0.0
 11
836.5579552279404
 21
3809.538048291681
 31
0.0
  0
LINE
  5
31E
330
6C
100
AcDbEntity
  8
Widoczne (ISO)
100
AcDbLine
 10
836.5579552279404
 20
3809.538048291681
 30
0.0
 11
836.5579552279404
 21
3807.983048291681
 31
0.0
  0
LINE
  5
31F
330
6C
100
AcDbEntity
  8
Widoczne (ISO)
100
AcDbLine
 10
836.5579552279404
 20
3807.983048291681
 30
0.0
 11
854.8912885612738
 21
3807.983048291681
 31
0.0
  0
LINE
  5
320
330
6C
100
AcDbEntity
  8
Widoczne (ISO)
100
AcDbLine
 10
854.8912885612738
 20
3807.983048291681
 30
0.0
 11
854.8912885612738
 21
3809.538048291681
 31
0.0
  0
LINE
  5
321
330
6C
100
AcDbEntity
  8
Widoczne (ISO)
100
AcDbLine
 10
854.8912885612738
 20
3809.538048291681
 30
0.0
 11
856.9746218946068
 21
3809.538048291681
 31
0.0
  0
LINE
  5
322
330
6C
100
AcDbEntity
  8
Widoczne (ISO)
100
AcDbLine
 10
856.9746218946068
 20
3809.538048291681
 30
0.0
 11
856.9746218946072
 21
3812.328439315306
 31
0.0
  0
LINE
  5
323
330
6C
100
AcDbEntity
  8
Widoczne (ISO)
100
AcDbLine
 10
856.9746218946072
 20
3812.328439315306
 30
0.0
 11
854.2019180520826
 21
3810.78804829168
 31
0.0
  0
LINE
  5
324
330
6C
100
AcDbEntity
  8
Widoczne (ISO)
100
AcDbLine
 10
854.2019180520826
 20
3810.78804829168
 30
0.0
 11
844.575475590431
 21
3810.78804829168
 31
0.0
  0
ARC
  5
325
330
6C
100
AcDbEntity
  8
Widoczne (ISO)
100
AcDbCircle
 10
844.575475590431
 20
3814.121381625015
 30
0.0
 40
3.333333333333239
100
AcDbArc
 50
252.3498757800717
 51
270.0
  0
LINE
  5
326
330
6C
100
AcDbEntity
  8
Widoczne (ISO)
100
AcDbLine
 10
843.5647967328414
 20
3810.944962358304
 30
0.0
 11
835.7096214112582
 21
3813.444336324262
 31
0.0
  0
ARC
  5
327
330
6C
100
AcDbEntity
  8
Widoczne (ISO)
100
AcDbCircle
 10
835.204281982463
 20
3811.856126690906
 30
0.0
 40
1.666666666666699
100
AcDbArc
 50
72.34987578007164
 51
126.869897645844
  0
LINE
  5
328
330
6C
100
AcDbEntity
  8
Widoczne (ISO)
100
AcDbLine
 10
834.2042819824632
 20
3813.18946002424
 30
0.0
 11
832.2246218946071
 21
3811.704714958347
 31
0.0
  0
ARC
  5
329
330
6C
100
AcDbEntity
  8
Widoczne (ISO)
100
AcDbCircle
 10
833.2246218946071
 20
3798.704714958347
 30
0.0
 40
1.666666666666749
100
AcDbArc
 50
180.0
 51
233.1301023541519
  0
LINE
  5
32A
330
6C
100
AcDbEntity
  8
Widoczne (ISO)
100
AcDbLine
 10
832.2246218946073
 20
3797.371381625015
 30
0.0
 11
834.2042819824632
 21
3795.886636559123
 31
0.0
  0
ARC
  5
32B
330
6C
100
AcDbEntity
  8
Widoczne (ISO)
100
AcDbCircle
 10
835.204281982463
 20
3797.219969892456
 30
0.0
 40
1.666666666666684
100
AcDbArc
 50
233.1301023541519
 51
287.6501242199187
  0
LINE
  5
32C
330
6C
100
AcDbEntity
  8
Widoczne (ISO)
100
AcDbLine
 10
835.7096214112578
 20
3795.631760259101
 30
0.0
 11
843.5647967328412
 21
3798.131134225059
 31
0.0
  0
ARC
  5
32D
330
6C
100
AcDbEntity
  8
Widoczne (ISO)
100
AcDbCircle
 10
844.575475590431
 20
3794.954714958347
 30
0.0
 40
3.333333333333195
100
AcDbArc
 50
89.99999999999745
 51
107.6501242199308
  0
LINE
  5
32E
330
6C
100
AcDbEntity
  8
Widoczne (ISO)
100
AcDbLine
 10
844.5754755904314
 20
3798.288048291681
 30
0.0
 11
859.8912885612733
 21
3798.288048291681
 31
0.0
  0
LINE
  5
32F
330
6C
100
AcDbEntity
  8
Widoczne (ISO)
100
AcDbLine
 10
859.8912885612733
 20
3798.288048291681
 30
0.0
 11
859.8912885612733
 21
3799.538048291682
 31
0.0
  0
LINE
  5
330
330
6C
100
AcDbEntity
  8
Widoczne (ISO)
100
AcDbLine
 10
859.8912885612733
 20
3799.538048291682
 30
0.0
 11
854.8912885612732
 21
3799.538048291682
 31
0.0
  0
LINE
  5
331
330
6C
100
AcDbEntity
  8
Widoczne (ISO)
100
AcDbLine
 10
854.8912885612732
 20
3799.538048291682
 30
0.0
 11
854.8912885612732
 21
3801.093048291681
 31
0.0
  0
LINE
  5
332
330
6C
100
AcDbEntity
  8
Widoczne (ISO)
100
AcDbLine
 10
854.8912885612732
 20
3801.093048291681
 30
0.0
 11
836.5579552279404
 21
3801.093048291681
 31
0.0
  0
LINE
  5
333
330
6C
100
AcDbEntity
  8
Widoczne (ISO)
100
AcDbLine
 10
836.5579552279404
 20
3801.093048291681
 30
0.0
 11
836.5579552279404
 21
3799.538048291682
 31
0.0
  0
LINE
  5
334
330
6C
100
AcDbEntity
  8
Widoczne (ISO)
100
AcDbLine
 10
836.5579552279404
 20
3799.538048291682
 30
0.0
 11
831.5579552279405
 21
3799.538048291682
 31
0.0
  0
LINE
  5
335
330
6C
100
AcDbEntity
  8
Widoczne (ISO)
100
AcDbLine
 10
831.5579552279405
 20
3799.538048291682
 30
0.0
 11
831.5579552279402
 21
3798.704714958347
 31
0.0
  0
LINE
  5
336
330
6C
100
AcDbEntity
  8
Widoczne (ISO)
100
AcDbLine
 10
2345.231463399507
 20
3797.871381625013
 30
0.0
 11
2345.231463399507
 21
3796.204714958346
 31
0.0
  0
LINE
  5
337
330
6C
100
AcDbEntity
  8
Widoczne (ISO)
100
AcDbLine
 10
2345.231463399507
 20
3796.204714958346
 30
0.0
 11
2565.231463399507
 21
3796.204714958347
 31
0.0
  0
LINE
  5
338
330
6C
100
AcDbEntity
  8
Widoczne (ISO)
100
AcDbLine
 10
2565.231463399507
 20
3796.204714958347
 30
0.0
 11
2565.231463399507
 21
3797.871381625014
 31
0.0
  0
LINE
  5
339
330
6C
100
AcDbEntity
  8
Widoczne (ISO)
100
AcDbLine
 10
2565.231463399507
 20
3797.871381625014
 30
0.0
 11
2345.231463399507
 21
3797.871381625013
 31
0.0
  0
LINE
  5
33A
330
6C
100
AcDbEntity
  8
Widoczne (ISO)
100
AcDbLine
 10
2345.231463399507
 20
3812.703014100957
 30
0.0
 11
2373.564796732842
 21
3812.703014100957
 31
0.0
  0
LINE
  5
33B
330
6C
100
AcDbEntity
  8
Widoczne (ISO)
100
AcDbLine
 10
2373.564796732842
 20
3810.993020535359
 30
0.0
 11
2345.231463399507
 21
3810.993020535359
 31
0.0
  0
LINE
  5
33C
330
6C
100
AcDbEntity
  8
Widoczne (ISO)
100
AcDbLine
 10
2340.231463399506
 20
3815.788048291679
 30
0.0
 11
2338.564796732841
 21
3815.788048291679
 31
0.0
  0
LINE
  5
33D
330
6C
100
AcDbEntity
  8
Widoczne (ISO)
100
AcDbLine
 10
2338.564796732841
 20
3815.788048291679
 30
0.0
 11
2338.564796732841
 21
3811.205302889448
 31
0.0
  0
LINE
  5
33E
330
6C
100
AcDbEntity
  8
Widoczne (ISO)
100
AcDbLine
 10
2338.564796732841
 20
3811.205302889448
 30
0.0
 11
2343.56479673284
 21
3811.205302889448
 31
0.0
  0
LINE
  5
33F
330
6C
100
AcDbEntity
  8
Widoczne (ISO)
100
AcDbLine
 10
2343.56479673284
 20
3811.205302889448
 30
0.0
 11
2343.56479673284
 21
3797.870793693912
 31
0.0
  0
LINE
  5
340
330
6C
100
AcDbEntity
  8
Widoczne (ISO)
100
AcDbLine
 10
2343.56479673284
 20
3797.870793693912
 30
0.0
 11
2338.564796732841
 21
3797.870793693912
 31
0.0
  0
LINE
  5
341
330
6C
100
AcDbEntity
  8
Widoczne (ISO)
100
AcDbLine
 10
2338.564796732841
 20
3797.870793693912
 30
0.0
 11
2338.564796732841
 21
3793.28804829168
 31
0.0
  0
LINE
  5
342
330
6C
100
AcDbEntity
  8
Widoczne (ISO)
100
AcDbLine
 10
2338.564796732841
 20
3793.28804829168
 30
0.0
 11
2340.231463399506
 21
3793.28804829168
 31
0.0
  0
LINE
  5
343
330
6C
100
AcDbEntity
  8
Widoczne (ISO)
100
AcDbLine
 10
2340.231463399506
 20
3793.28804829168
 30
0.0
 11
2343.56479673284
 21
3795.78804829168
 31
0.0
  0
LINE
  5
344
330
6C
100
AcDbEntity
  8
Widoczne (ISO)
100
AcDbLine
 10
2343.56479673284
 20
3795.78804829168
 30
0.0
 11
2345.231463399507
 21
3795.78804829168
 31
0.0
  0
LINE
  5
345
330
6C
100
AcDbEntity
  8
Widoczne (ISO)
100
AcDbLine
 10
2345.231463399507
 20
3795.78804829168
 30
0.0
 11
2345.231463399507
 21
3798.704714958347
 31
0.0
  0
LINE
  5
346
330
6C
100
AcDbEntity
  8
Widoczne (ISO)
100
AcDbLine
 10
2345.231463399507
 20
3798.704714958347
 30
0.0
 11
2350.231463399507
 21
3800.371381625013
 31
0.0
  0
LINE
  5
347
330
6C
100
AcDbEntity
  8
Widoczne (ISO)
100
AcDbLine
 10
2350.231463399507
 20
3800.371381625013
 30
0.0
 11
2581.898130066174
 21
3800.371381625014
 31
0.0
  0
LINE
  5
348
330
6C
100
AcDbEntity
  8
Widoczne (ISO)
100
AcDbLine
 10
2581.898130066174
 20
3800.371381625014
 30
0.0
 11
2581.898130066174
 21
3808.704714958346
 31
0.0
  0
LINE
  5
349
330
6C
100
AcDbEntity
  8
Widoczne (ISO)
100
AcDbLine
 10
2581.898130066174
 20
3808.704714958346
 30
0.0
 11
2350.231463399507
 21
3808.704714958346
 31
0.0
  0
LINE
  5
34A
330
6C
100
AcDbEntity
  8
Widoczne (ISO)
100
AcDbLine
 10
2350.231463399507
 20
3808.704714958346
 30
0.0
 11
2345.231463399507
 21
3810.371381625013
 31
0.0
  0
LINE
  5
34B
330
6C
100
AcDbEntity
  8
Widoczne (ISO)
100
AcDbLine
 10
2345.231463399507
 20
3810.371381625013
 30
0.0
 11
2345.231463399507
 21
3813.28804829168
 31
0.0
  0
LINE
  5
34C
330
6C
100
AcDbEntity
  8
Widoczne (ISO)
100
AcDbLine
 10
2345.231463399507
 20
3813.28804829168
 30
0.0
 11
2343.56479673284
 21
3813.28804829168
 31
0.0
  0
LINE
  5
34D
330
6C
100
AcDbEntity
  8
Widoczne (ISO)
100
AcDbLine
 10
2343.56479673284
 20
3813.28804829168
 30
0.0
 11
2340.231463399506
 21
3815.788048291679
 31
0.0
  0
LINE
  5
34E
330
6C
100
AcDbEntity
  8
Widoczne (ISO)
100
AcDbLine
 10
2338.564796732841
 20
3797.888569391357
 30
0.0
 11
2343.56479673284
 21
3797.888569391357
 31
0.0
  0
LINE
  5
34F
330
6C
100
AcDbEntity
  8
Widoczne (ISO)
100
AcDbLine
 10
2338.564796732841
 20
3797.870793693912
 30
0.0
 11
2338.564796732841
 21
3797.888569391357
 31
0.0
  0
LINE
  5
350
330
6C
100
AcDbEntity
  8
Widoczne (ISO)
100
AcDbLine
 10
2338.564796732841
 20
3797.888569391357
 30
0.0
 11
2338.564796732841
 21
3803.304758406128
 31
0.0
  0
LINE
  5
351
330
6C
100
AcDbEntity
  8
Widoczne (ISO)
100
AcDbLine
 10
2338.564796732841
 20
3803.304758406128
 30
0.0
 11
2338.564796732841
 21
3803.376691250173
 31
0.0
  0
LINE
  5
352
330
6C
100
AcDbEntity
  8
Widoczne (ISO)
100
AcDbLine
 10
2338.564796732841
 20
3803.376691250173
 30
0.0
 11
2338.564796732841
 21
3805.804537951407
 31
0.0
  0
LINE
  5
353
330
6C
100
AcDbEntity
  8
Widoczne (ISO)
100
AcDbLine
 10
2338.564796732841
 20
3805.804537951407
 30
0.0
 11
2338.564796732841
 21
3811.205302889448
 31
0.0
  0
LINE
  5
354
330
6C
100
AcDbEntity
  8
Widoczne (ISO)
100
AcDbLine
 10
2338.564796732841
 20
3805.804537951407
 30
0.0
 11
2343.56479673284
 21
3805.804537951407
 31
0.0
  0
LINE
  5
355
330
6C
100
AcDbEntity
  8
Widoczne (ISO)
100
AcDbLine
 10
2338.564796732841
 20
3803.376691250173
 30
0.0
 11
2343.56479673284
 21
3803.376691250173
 31
0.0
  0
LINE
  5
356
330
6C
100
AcDbEntity
  8
Widoczne (ISO)
100
AcDbLine
 10
2338.564796732841
 20
3803.304758406128
 30
0.0
 11
2343.56479673284
 21
3803.304758406128
 31
0.0
  0
ARC
  5
357
330
6C
100
AcDbEntity
  8
Widoczne (ISO)
100
AcDbCircle
 10
2575.571638237742
 20
3798.704714958347
 30
0.0
 40
1.666666666666597
100
AcDbArc
 50
306.8698976458481
 51
0.0
  0
LINE
  5
358
330
6C
100
AcDbEntity
  8
Widoczne (ISO)
100
AcDbLine
 10
2577.238304904408
 20
3798.704714958347
 30
0.0
 11
2577.238304904408
 21
3799.53804829168
 31
0.0
  0
LINE
  5
359
330
6C
100
AcDbEntity
  8
Widoczne (ISO)
100
AcDbLine
 10
2577.238304904408
 20
3799.53804829168
 30
0.0
 11
2572.238304904408
 21
3799.53804829168
 31
0.0
  0
LINE
  5
35A
330
6C
100
AcDbEntity
  8
Widoczne (ISO)
100
AcDbLine
 10
2572.238304904408
 20
3799.53804829168
 30
0.0
 11
2572.238304904408
 21
3801.093048291681
 31
0.0
  0
LINE
  5
35B
330
6C
100
AcDbEntity
  8
Widoczne (ISO)
100
AcDbLine
 10
2572.238304904408
 20
3801.093048291681
 30
0.0
 11
2553.904971571075
 21
3801.093048291681
 31
0.0
  0
LINE
  5
35C
330
6C
100
AcDbEntity
  8
Widoczne (ISO)
100
AcDbLine
 10
2553.904971571075
 20
3801.093048291681
 30
0.0
 11
2553.904971571075
 21
3799.53804829168
 31
0.0
  0
LINE
  5
35D
330
6C
100
AcDbEntity
  8
Widoczne (ISO)
100
AcDbLine
 10
2553.904971571075
 20
3799.53804829168
 30
0.0
 11
2548.904971571075
 21
3799.53804829168
 31
0.0
  0
LINE
  5
35E
330
6C
100
AcDbEntity
  8
Widoczne (ISO)
100
AcDbLine
 10
2548.904971571075
 20
3799.53804829168
 30
0.0
 11
2548.904971571075
 21
3798.28804829168
 31
0.0
  0
LINE
  5
35F
330
6C
100
AcDbEntity
  8
Widoczne (ISO)
100
AcDbLine
 10
2548.904971571075
 20
3798.28804829168
 30
0.0
 11
2564.220784541918
 21
3798.28804829168
 31
0.0
  0
ARC
  5
360
330
6C
100
AcDbEntity
  8
Widoczne (ISO)
100
AcDbCircle
 10
2564.220784541918
 20
3794.954714958347
 30
0.0
 40
3.333333333333208
100
AcDbArc
 50
72.3498757800765
 51
90.0
  0
LINE
  5
361
330
6C
100
AcDbEntity
  8
Widoczne (ISO)
100
AcDbLine
 10
2565.231463399507
 20
3798.131134225058
 30
0.0
 11
2573.086638721091
 21
3795.631760259099
 31
0.0
  0
ARC
  5
362
330
6C
100
AcDbEntity
  8
Widoczne (ISO)
100
AcDbCircle
 10
2573.591978149886
 20
3797.219969892455
 30
0.0
 40
1.666666666666707
100
AcDbArc
 50
252.3498757800717
 51
306.8698976458481
  0
LINE
  5
363
330
6C
100
AcDbEntity
  8
Widoczne (ISO)
100
AcDbLine
 10
2574.591978149886
 20
3795.886636559121
 30
0.0
 11
2576.571638237741
 21
3797.371381625014
 31
0.0
  0
ARC
  5
364
330
6C
100
AcDbEntity
  8
Widoczne (ISO)
100
AcDbCircle
 10
2575.571638237742
 20
3810.371381625014
 30
0.0
 40
1.666666666666631
100
AcDbArc
 50
0.0
 51
53.13010235416005
  0
LINE
  5
365
330
6C
100
AcDbEntity
  8
Widoczne (ISO)
100
AcDbLine
 10
2576.571638237741
 20
3811.704714958347
 30
0.0
 11
2574.591978149886
 21
3813.189460024238
 31
0.0
  0
ARC
  5
366
330
6C
100
AcDbEntity
  8
Widoczne (ISO)
100
AcDbCircle
 10
2573.591978149886
 20
3811.856126690905
 30
0.0
 40
1.666666666666718
100
AcDbArc
 50
53.13010235414378
 51
107.6501242199186
  0
LINE
  5
367
330
6C
100
AcDbEntity
  8
Widoczne (ISO)
100
AcDbLine
 10
2573.086638721091
 20
3813.444336324261
 30
0.0
 11
2565.231463399507
 21
3810.944962358302
 31
0.0
  0
ARC
  5
368
330
6C
100
AcDbEntity
  8
Widoczne (ISO)
100
AcDbCircle
 10
2564.220784541918
 20
3814.121381625014
 30
0.0
 40
3.333333333333236
100
AcDbArc
 50
270.0
 51
287.6501242199283
  0
LINE
  5
369
330
6C
100
AcDbEntity
  8
Widoczne (ISO)
100
AcDbLine
 10
2564.220784541918
 20
3810.78804829168
 30
0.0
 11
2554.594342080265
 21
3810.78804829168
 31
0.0
  0
LINE
  5
36A
330
6C
100
AcDbEntity
  8
Widoczne (ISO)
100
AcDbLine
 10
2554.594342080265
 20
3810.78804829168
 30
0.0
 11
2551.821638237742
 21
3812.328439315305
 31
0.0
  0
LINE
  5
36B
330
6C
100
AcDbEntity
  8
Widoczne (ISO)
100
AcDbLine
 10
2551.821638237742
 20
3812.328439315305
 30
0.0
 11
2551.821638237742
 21
3809.53804829168
 31
0.0
  0
LINE
  5
36C
330
6C
100
AcDbEntity
  8
Widoczne (ISO)
100
AcDbLine
 10
2551.821638237742
 20
3809.53804829168
 30
0.0
 11
2553.904971571075
 21
3809.53804829168
 31
0.0
  0
LINE
  5
36D
330
6C
100
AcDbEntity
  8
Widoczne (ISO)
100
AcDbLine
 10
2553.904971571075
 20
3809.53804829168
 30
0.0
 11
2553.904971571075
 21
3807.98304829168
 31
0.0
  0
LINE
  5
36E
330
6C
100
AcDbEntity
  8
Widoczne (ISO)
100
AcDbLine
 10
2553.904971571075
 20
3807.98304829168
 30
0.0
 11
2572.238304904408
 21
3807.98304829168
 31
0.0
  0
LINE
  5
36F
330
6C
100
AcDbEntity
  8
Widoczne (ISO)
100
AcDbLine
 10
2572.238304904408
 20
3807.98304829168
 30
0.0
 11
2572.238304904408
 21
3809.53804829168
 31
0.0
  0
LINE
  5
370
330
6C
100
AcDbEntity
  8
Widoczne (ISO)
100
AcDbLine
 10
2572.238304904408
 20
3809.53804829168
 30
0.0
 11
2577.238304904408
 21
3809.53804829168
 31
0.0
  0
LINE
  5
371
330
6C
100
AcDbEntity
  8
Widoczne (ISO)
100
AcDbLine
 10
2577.238304904408
 20
3809.53804829168
 30
0.0
 11
2577.238304904408
 21
3810.371381625014
 31
0.0
  0
CIRCLE
  5
372
330
6C
100
AcDbEntity
  8
Widoczne (ISO)
100
AcDbCircle
 10
1156.898130066174
 20
3842.03804829168
 30
0.0
 40
6.666666666666668
  0
ARC
  5
373
330
6C
100
AcDbEntity
  8
Widoczne (ISO)
100
AcDbCircle
 10
2251.898130066154
 20
3842.03804829168
 30
0.0
 40
6.666666666666668
100
AcDbArc
 50
234.2729068940287
 51
120.2404441294359
  0
MTEXT
  5
374
330
6C
100
AcDbEntity
  8
Symbol (ISO)
100
AcDbMText
 10
1517.32299194223
 20
8038.214182417272
 30
0.0
 40
58.33333233992259
 41
0.0
 71
     7
 72
     1
  1
D-D ( 1:10 )
  7
Tekst notatki (ISO)
 73
     1
 44
1.0
1001
ACAD
1000
MTEXTBEGIN
1070
    73
1070
     1
1070
    44
1040
1.0
1070
    74
1070
     0
1000
MTEXTEND
  0
HATCH
  5
38B
330
6C
100
AcDbEntity
  8
Kreskowanie (ISO)
100
AcDbHatch
 10
0.0
 20
0.0
 30
0.0
210
0.0
220
0.0
230
1.0
  2
ANSI31
 70
     0
 71
     0
 91
        2
 92
        1
 93
       11
 72
     1
 10
704.3981300661736
 20
3708.605189958831
 11
997.7065821496289
 21
3708.605189958831
 72
     1
 10
997.7065821496289
 20
3708.605189958831
 11
1035.231463399507
 21
3708.605189958831
 72
     1
 10
1035.231463399507
 20
3708.605189958831
 11
1035.231463399507
 21
3796.204714958347
 72
     1
 10
1035.231463399507
 20
3796.204714958348
 11
1035.231463399507
 21
3797.871381625014
 72
     1
 10
1035.231463399507
 20
3797.871381625014
 11
1035.231463399507
 21
3800.371381625014
 72
     1
 10
1035.231463399507
 20
3800.371381625014
 11
1035.231463399507
 21
3808.704714958348
 72
     1
 10
1035.231463399507
 20
3808.704714958348
 11
1035.231463399507
 21
3958.605189958832
 72
     1
 10
1035.231463399507
 20
3958.605189958831
 11
910.3981300661795
 21
3958.605189958831
 72
     1
 10
910.3981300661791
 20
3958.605189958831
 11
901.3981300661793
 21
3958.605189958831
 72
     1
 10
901.3981300661793
 20
3958.605189958831
 11
704.3981300661735
 21
3958.605189958831
 72
     1
 10
704.3981300661736
 20
3958.605189958831
 11
704.3981300661736
 21
3708.605189958831
 97
        0
 92
        1
 93
       11
 72
     1
 10
2373.564796732842
 20
3708.605189958831
 11
2411.08967798272
 21
3708.605189958831
 72
     1
 10
2411.089677982719
 20
3708.605189958831
 11
2704.398130066175
 21
3708.605189958831
 72
     1
 10
2704.398130066175
 20
3708.605189958831
 11
2704.398130066175
 21
3958.605189958831
 72
     1
 10
2704.398130066175
 20
3958.605189958831
 11
2507.398130066175
 21
3958.605189958831
 72
     1
 10
2507.398130066175
 20
3958.605189958831
 11
2498.398130066175
 21
3958.605189958831
 72
     1
 10
2498.398130066175
 20
3958.605189958831
 11
2373.564796732842
 21
3958.605189958831
 72
     1
 10
2373.564796732842
 20
3958.605189958831
 11
2373.564796732842
 21
3808.704714958346
 72
     1
 10
2373.564796732842
 20
3808.704714958346
 11
2373.564796732842
 21
3800.371381625013
 72
     1
 10
2373.564796732842
 20
3800.371381625013
 11
2373.564796732842
 21
3797.871381625013
 72
     1
 10
2373.564796732842
 20
3797.871381625013
 11
2373.564796732842
 21
3796.204714958346
 72
     1
 10
2373.564796732842
 20
3796.204714958347
 11
2373.564796732842
 21
3708.605189958832
 97
        0
 75
     0
 76
     1
 52
0.0
 41
423.3333333333333
 77
     0
 78
     1
 53
45.0
 43
0.0
 44
0.0
 45
-37.41773383778814
 46
37.41773383778815
 79
     0
 98
        1
 10
1704.398130066174
 20
3833.605189958831
  0
HATCH
  5
3B2
330
6C
100
AcDbEntity
  8
Kreskowanie (ISO)
100
AcDbHatch
 10
0.0
 20
0.0
 30
0.0
210
0.0
220
0.0
230
1.0
  2
ANSI31
 70
     0
 71
     0
 91
        2
 92
        1
 93
        9
 72
     3
 10
1081.564796732841
 20
3866.704714958347
 11
0.0000000000000365
 21
5.333333333333338
 40
1.0
 50
270.0000000000004
 51
360.0000000000004
 73
     1
 72
     1
 10
1081.564796732841
 20
3872.038048291681
 11
1060.231463399508
 21
3872.038048291681
 72
     1
 10
1060.231463399508
 20
3872.038048291681
 11
1060.231463399508
 21
3875.371381625014
 72
     1
 10
1060.231463399508
 20
3875.371381625014
 11
1081.564796732841
 21
3875.371381625014
 72
     3
 10
1081.564796732841
 20
3866.704714958347
 11
8.66666666666663
 21
-0.0000000000000288
 40
1.0
 50
269.9999999999998
 51
360.0
 73
     0
 72
     1
 10
1090.231463399508
 20
3866.704714958347
 11
1090.231463399508
 21
3825.371381625014
 72
     1
 10
1090.231463399508
 20
3825.371381625014
 11
1090.231463399508
 21
3822.454714958348
 72
     1
 10
1090.231463399508
 20
3822.454714958348
 11
1086.898130066174
 21
3822.454714958348
 72
     1
 10
1086.898130066174
 20
3822.454714958348
 11
1086.898130066174
 21
3866.704714958347
 97
        0
 92
        1
 93
       29
 72
     1
 10
1090.231463399508
 20
3774.038048291681
 11
1090.231463399508
 21
3783.704714958348
 72
     1
 10
1090.231463399508
 20
3783.704714958348
 11
1090.231463399508
 21
3786.621381625014
 72
     1
 10
1090.231463399508
 20
3786.621381625014
 11
1086.898130066174
 21
3786.621381625014
 72
     1
 10
1086.898130066174
 20
3786.621381625014
 11
1086.898130066174
 21
3774.038048291681
 72
     3
 10
1095.564796732841
 20
3774.038048291681
 11
-8.666666666666667
 21
-0.0000000000000008
 40
1.0
 50
0.0
 51
90.0
 73
     1
 72
     1
 10
1095.564796732841
 20
3765.371381625015
 11
1121.564796732841
 21
3765.371381625015
 72
     3
 10
1121.564796732841
 20
3760.038048291681
 11
-0.0000000000000098
 21
5.333333333333323
 40
1.0
 50
0.0000000000001018
 51
90.00000000000008
 73
     0
 72
     1
 10
1126.898130066174
 20
3760.038048291681
 11
1126.898130066174
 21
3710.704714958347
 72
     3
 10
1121.564796732841
 20
3710.704714958348
 11
5.333333333333333
 21
0.0000000000000005
 40
1.0
 50
0.0
 51
90.0
 73
     0
 72
     1
 10
1121.564796732841
 20
3705.371381625015
 11
1065.231463399508
 21
3705.371381625015
 72
     1
 10
1065.231463399508
 20
3705.371381625015
 11
1061.898130066175
 21
3705.371381625015
 72
     1
 10
1061.898130066175
 20
3705.371381625015
 11
1011.298378821528
 21
3705.371381625015
 72
     3
 10
1011.298378821527
 20
3710.704714958348
 11
0.0000000000000153
 21
-5.333333333333375
 40
1.0
 50
0.0000000000001527
 51
14.03624346792659
 73
     0
 72
     1
 10
1010.004855488
 20
3705.53062162424
 11
997.7065821496292
 21
3708.605189958831
 72
     1
 10
997.7065821496292
 20
3708.605189958831
 11
996.8981300661747
 21
3705.371381625014
 72
     1
 10
996.8981300661747
 20
3705.371381625015
 11
1009.196403404546
 21
3702.296813290422
 72
     3
 10
1011.298378821527
 20
3710.704714958348
 11
-2.101975416981538
 21
-8.407901667926111
 40
1.0
 50
0.0
 51
14.03624346792653
 73
     1
 72
     1
 10
1011.298378821527
 20
3702.038048291681
 11
1121.564796732841
 21
3702.038048291681
 72
     3
 10
1121.564796732841
 20
3710.704714958348
 11
0.0000000000000008
 21
-8.666666666666671
 40
1.0
 50
0.0
 51
90.0
 73
     1
 72
     1
 10
1130.231463399508
 20
3710.704714958348
 11
1130.231463399508
 21
3724.538048291682
 72
     1
 10
1130.231463399508
 20
3724.538048291681
 11
1129.064796732836
 21
3724.538048291681
 72
     3
 10
1129.064796732836
 20
3725.871381625014
 11
0.0000000000000001
 21
-1.333333333333333
 40
1.0
 50
0.0
 51
90.0
 73
     0
 72
     1
 10
1127.731463399503
 20
3725.871381625014
 11
1127.731463399503
 21
3744.871381625014
 72
     3
 10
1129.064796732836
 20
3744.871381625015
 11
-1.333333333333333
 21
-0.0000000000000001
 40
1.0
 50
0.0
 51
90.0
 73
     0
 72
     1
 10
1129.064796732836
 20
3746.204714958348
 11
1130.231463399508
 21
3746.204714958348
 72
     1
 10
1130.231463399508
 20
3746.204714958348
 11
1130.231463399508
 21
3760.038048291681
 72
     3
 10
1121.564796732841
 20
3760.038048291681
 11
8.666666666666671
 21
0.0000000000000008
 40
1.0
 50
0.0
 51
90.0
 73
     1
 72
     1
 10
1121.564796732841
 20
3768.704714958347
 11
1095.564796732841
 21
3768.704714958347
 72
     3
 10
1095.564796732841
 20
3774.038048291681
 11
-0.0000000000000069
 21
-5.333333333333338
 40
1.0
 50
-0.0000000000000509
 51
89.99999999999991
 73
     0
 97
        0
 75
     0
 76
     1
 52
90.0
 41
423.3333333333333
 77
     0
 78
     1
 53
135.0
 43
0.0
 44
0.0
 45
-37.41773383778815
 46
-37.41773383778814
 79
     0
 98
        1
 10
1704.398130066174
 20
3833.605189958831
  0
HATCH
  5
3D3
330
6C
100
AcDbEntity
  8
Kreskowanie (ISO)
100
AcDbHatch
 10
0.0
 20
0.0
 30
0.0
210
0.0
220
0.0
230
1.0
  2
ANSI31
 70
     0
 71
     0
 91
        2
 92
        1
 93
        9
 72
     3
 10
2327.231463399507
 20
3866.704714958347
 11
-5.33333333333336
 21
-0.0000000000000023
 40
1.0
 50
270.0
 51
360.0
 73
     1
 72
     1
 10
2321.898130066174
 20
3866.704714958347
 11
2321.898130066175
 21
3822.454714958347
 72
     1
 10
2321.898130066174
 20
3822.454714958347
 11
2318.564796732839
 21
3822.454714958347
 72
     1
 10
2318.56479673284
 20
3822.454714958347
 11
2318.56479673284
 21
3825.371381625014
 72
     1
 10
2318.56479673284
 20
3825.371381625014
 11
2318.56479673284
 21
3866.704714958347
 72
     3
 10
2327.231463399507
 20
3866.704714958347
 11
-0.0000000000000037
 21
8.66666666666666
 40
1.0
 50
270.0
 51
360.0
 73
     0
 72
     1
 10
2327.231463399507
 20
3875.371381625014
 11
2348.564796732841
 21
3875.371381625014
 72
     1
 10
2348.564796732841
 20
3875.371381625014
 11
2348.564796732841
 21
3872.038048291681
 72
     1
 10
2348.564796732841
 20
3872.03804829168
 11
2327.231463399507
 21
3872.03804829168
 97
        0
 92
        1
 93
       23
 72
     1
 10
2318.56479673284
 20
3786.621381625014
 11
2318.564796732841
 21
3783.704714958348
 72
     1
 10
2318.56479673284
 20
3783.704714958348
 11
2318.56479673284
 21
3774.038048291681
 72
     3
 10
2313.231463399507
 20
3774.038048291681
 11
5.333333333333346
 21
0.0000000000000023
 40
1.0
 50
0.0
 51
90.0
 73
     0
 72
     1
 10
2313.231463399507
 20
3768.704714958347
 11
2287.231463399507
 21
3768.704714958347
 72
     3
 10
2287.231463399507
 20
3760.038048291681
 11
-0.0000000000000093
 21
8.666666666666667
 40
1.0
 50
0.0
 51
90.00000000000005
 73
     1
 72
     1
 10
2278.56479673284
 20
3760.038048291681
 11
2278.56479673284
 21
3710.704714958347
 72
     3
 10
2287.231463399507
 20
3710.704714958347
 11
-8.666666666666671
 21
-0.0000000000000056
 40
1.0
 50
0.0
 51
89.99999999999994
 73
     1
 72
     1
 10
2287.231463399507
 20
3702.038048291681
 11
2397.497881310821
 21
3702.038048291681
 72
     3
 10
2397.497881310821
 20
3710.704714958347
 11
-0.0000000000000259
 21
-8.66666666666658
 40
1.0
 50
0.000000000000171
 51
14.03624346792712
 73
     1
 72
     1
 10
2399.599856727803
 20
3702.296813290421
 11
2411.898130066174
 21
3705.371381625014
 72
     1
 10
2411.898130066174
 20
3705.371381625015
 11
2411.089677982719
 21
3708.605189958832
 72
     1
 10
2411.089677982719
 20
3708.605189958831
 11
2398.791404644348
 21
3705.530621624239
 72
     3
 10
2397.497881310821
 20
3710.704714958348
 11
1.293523333527112
 21
-5.174093334108478
 40
1.0
 50
0.0000000000000509
 51
14.03624346792638
 73
     0
 72
     1
 10
2397.497881310821
 20
3705.371381625015
 11
2346.898130066174
 21
3705.371381625015
 72
     1
 10
2346.898130066174
 20
3705.371381625015
 11
2343.564796732841
 21
3705.371381625015
 72
     1
 10
2343.56479673284
 20
3705.371381625015
 11
2287.231463399507
 21
3705.371381625015
 72
     3
 10
2287.231463399507
 20
3710.704714958347
 11
0.0000000000000116
 21
-5.333333333333333
 40
1.0
 50
-0.0000000000011704
 51
90.00000000000008
 73
     0
 72
     1
 10
2281.898130066174
 20
3710.704714958347
 11
2281.898130066174
 21
3760.038048291681
 72
     3
 10
2287.231463399507
 20
3760.038048291681
 11
-5.333333333333326
 21
-0.0000000000000097
 40
1.0
 50
0.0000000000001018
 51
90.00000000000008
 73
     0
 72
     1
 10
2287.231463399507
 20
3765.371381625015
 11
2313.231463399507
 21
3765.371381625015
 72
     3
 10
2313.231463399507
 20
3774.038048291681
 11
-0.0000000000000037
 21
-8.666666666666674
 40
1.0
 50
0.0000000000000242
 51
90.00000000000005
 73
     1
 72
     1
 10
2321.898130066174
 20
3774.038048291681
 11
2321.898130066175
 21
3786.621381625014
 72
     1
 10
2321.898130066174
 20
3786.621381625014
 11
2318.56479673284
 21
3786.621381625014
 97
        0
 75
     0
 76
     1
 52
15.0
 41
423.3333333333333
 77
     0
 78
     1
 53
60.0
 43
0.0
 44
0.0
 45
-45.82717761692655
 46
26.45833333333334
 79
     0
 98
        1
 10
1704.398130066174
 20
3833.605189958831
  0
HATCH
  5
3DA
330
6C
100
AcDbEntity
  8
Kreskowanie (ISO)
100
AcDbHatch
 10
0.0
 20
0.0
 30
0.0
210
0.0
220
0.0
230
1.0
  2
ANSI31
 70
     0
 71
     0
 91
        1
 92
        1
 93
        6
 72
     1
 10
1178.564796732837
 20
3769.204714958347
 11
1178.564796732835
 21
3768.704714958349
 72
     1
 10
1178.564796732835
 20
3768.704714958349
 11
1178.564796732836
 21
3767.871381625013
 72
     1
 10
1178.564796732837
 20
3767.871381625013
 11
2263.564796732838
 21
3767.871381625015
 72
     1
 10
2263.564796732838
 20
3767.871381625015
 11
2263.564796732838
 21
3769.204714958348
 72
     1
 10
2263.564796732838
 20
3769.204714958348
 11
1226.89813006617
 21
3769.204714958347
 72
     1
 10
1226.89813006617
 20
3769.204714958347
 11
1178.564796732837
 21
3769.204714958347
 97
        0
 75
     0
 76
     1
 52
90.0
 41
423.3333333333333
 77
     0
 78
     1
 53
135.0
 43
0.0
 44
0.0
 45
-37.41773383778815
 46
-37.41773383778814
 79
     0
 98
        1
 10
1704.398130066174
 20
3833.605189958831
  0
HATCH
  5
3E7
330
6C
100
AcDbEntity
  8
Kreskowanie (ISO)
100
AcDbHatch
 10
0.0
 20
0.0
 30
0.0
210
0.0
220
0.0
230
1.0
  2
ANSI31
 70
     0
 71
     0
 91
        1
 92
        1
 93
       12
 72
     3
 10
2270.231463399501
 20
3768.704714958347
 11
-0.0000000000000872
 21
1.666666666666661
 40
1.0
 50
270.0000000000003
 51
360.0000000000011
 73
     1
 72
     1
 10
2270.231463399501
 20
3770.371381625015
 11
2223.564796732834
 21
3770.371381625012
 72
     1
 10
2223.564796732834
 20
3770.371381625011
 11
2223.564796732834
 21
3772.038048291678
 72
     1
 10
2223.564796732834
 20
3772.038048291679
 11
2270.2314633995
 21
3772.038048291681
 72
     3
 10
2270.231463399501
 20
3768.704714958347
 11
3.33333333333333
 21
0.0000000000001845
 40
1.0
 50
269.9999999999991
 51
360.0
 73
     0
 72
     1
 10
2273.564796732835
 20
3768.704714958347
 11
2273.564796732838
 21
3704.538048291681
 72
     3
 10
2270.231463399505
 20
3704.538048291681
 11
0.0000000000001767
 21
-3.333333333333336
 40
1.0
 50
270.0
 51
360.0
 73
     0
 72
     1
 10
2270.231463399505
 20
3701.204714958347
 11
2223.564796732838
 21
3701.204714958346
 72
     1
 10
2223.564796732838
 20
3701.204714958346
 11
2223.564796732838
 21
3702.871381625012
 72
     1
 10
2223.564796732838
 20
3702.871381625012
 11
2270.231463399505
 21
3702.871381625015
 72
     3
 10
2270.231463399505
 20
3704.538048291681
 11
1.666666666666662
 21
0.0000000000000886
 40
1.0
 50
270.000000000001
 51
359.9999999999995
 73
     1
 72
     1
 10
2271.898130066171
 20
3704.538048291681
 11
2271.898130066168
 21
3768.704714958348
 97
        0
 75
     0
 76
     1
 52
15.0
 41
423.3333333333333
 77
     0
 78
     1
 53
60.0
 43
0.0
 44
0.0
 45
-45.82717761692655
 46
26.45833333333334
 79
     0
 98
        1
 10
1704.398130066174
 20
3833.605189958831
  0
HATCH
  5
3EC
330
6C
100
AcDbEntity
  8
Kreskowanie (ISO)
100
AcDbHatch
 10
0.0
 20
0.0
 30
0.0
210
0.0
220
0.0
230
1.0
  2
ANSI31
 70
     0
 71
     0
 91
        1
 92
        1
 93
        4
 72
     1
 10
1171.564796732837
 20
3767.53804829168
 11
1171.564796732837
 21
3704.204714958346
 72
     1
 10
1171.564796732837
 20
3704.204714958346
 11
2270.564796732837
 21
3704.204714958347
 72
     1
 10
2270.564796732837
 20
3704.204714958347
 11
2270.564796732837
 21
3767.538048291681
 72
     1
 10
2270.564796732837
 20
3767.53804829168
 11
1171.564796732836
 21
3767.53804829168
 97
        0
 75
     0
 76
     1
 52
105.0
 41
423.3333333333333
 77
     0
 78
     1
 53
150.0
 43
0.0
 44
0.0
 45
-26.45833333333334
 46
-45.82717761692655
 79
     0
 98
        1
 10
1704.398130066174
 20
3833.605189958831
  0
HATCH
  5
409
330
6C
100
AcDbEntity
  8
Kreskowanie (ISO)
100
AcDbHatch
 10
0.0
 20
0.0
 30
0.0
210
0.0
220
0.0
230
1.0
  2
ANSI31
 70
     0
 71
     0
 91
        1
 92
        1
 93
       28
 72
     3
 10
1061.981463399513
 20
3960.355189958831
 11
-1.75
 21
0.0000000000000019
 40
1.0
 50
0.0000000000000628
 51
180.0
 73
     1
 72
     1
 10
1063.731463399513
 20
3960.355189958831
 11
1063.731463399602
 21
3977.605189958741
 72
     3
 10
1059.398130066179
 20
3977.605189958831
 11
4.333333333333333
 21
-0.0000000000902289
 40
1.0
 50
0.0
 51
90.00000000117735
 73
     1
 72
     1
 10
1059.39813006618
 20
3981.938523292164
 11
901.3981300661784
 21
3981.938523292164
 72
     3
 10
901.3981300661798
 20
3977.605189958831
 11
-0.0000000000013571
 21
4.333333333333335
 40
1.0
 50
0.0000000000008457
 51
90.00000000000124
 73
     1
 72
     1
 10
897.0647967328465
 20
3977.605189958829
 11
897.0647967328458
 21
3962.938523292165
 72
     3
 10
901.3981300661793
 20
3962.938523292165
 11
-4.333333333333419
 21
0.0000000000000121
 40
1.0
 50
0.0000000000003564
 51
90.00000000000172
 73
     1
 72
     1
 10
901.3981300661793
 20
3958.605189958831
 11
910.3981300661791
 21
3958.605189958831
 72
     1
 10
910.3981300661791
 20
3958.605189958831
 11
910.3981300661791
 21
3960.271856625498
 72
     1
 10
910.3981300661791
 20
3960.271856625498
 11
902.0647967328459
 21
3960.271856625498
 72
     1
 10
902.0647967328461
 20
3960.271856625498
 11
901.3981300661793
 21
3960.271856625498
 72
     3
 10
901.3981300661793
 20
3962.938523292165
 11
0.0000000000000267
 21
-2.666666666666754
 40
1.0
 50
0.0000000000005598
 51
89.99999999999994
 73
     0
 72
     1
 10
898.7314633995126
 20
3962.938523292165
 11
898.7314633995133
 21
3977.605189958829
 72
     3
 10
901.3981300661798
 20
3977.605189958831
 11
-2.666666666666639
 21
-0.0000000000014765
 40
1.0
 50
-0.0000000000001018
 51
90.00000000000374
 73
     0
 72
     1
 10
901.3981300661786
 20
3980.271856625498
 11
1059.39813006618
 21
3980.271856625498
 72
     3
 10
1059.398130066179
 20
3977.605189958831
 11
0.0000000000011502
 21
2.666666666666666
 40
1.0
 50
-0.000000000001832
 51
90.00000000191411
 73
     0
 72
     1
 10
1062.064796732846
 20
3977.605189958741
 11
1062.064796732846
 21
3960.355189958831
 72
     3
 10
1061.981463399513
 20
3960.355189958831
 11
0.0833333333333334
 21
-0.0000000000000038
 40
1.0
 50
-0.0000000000025953
 51
179.9999999999973
 73
     0
 72
     1
 10
1061.898130066179
 20
3960.355189958831
 11
1061.89813006618
 21
3975.771856625498
 72
     3
 10
1057.564796732846
 20
3975.771856625498
 11
4.333333333333335
 21
-0.0000000000000038
 40
1.0
 50
0.0000000000000505
 51
89.99999999999692
 73
     1
 72
     1
 10
1057.564796732846
 20
3980.105189958831
 11
1030.231463399513
 21
3980.105189958831
 72
     1
 10
1030.231463399513
 20
3980.105189958831
 11
1030.231463399513
 21
3978.438523292164
 72
     1
 10
1030.231463399513
 20
3978.438523292164
 11
1054.564796732846
 21
3978.438523292164
 72
     1
 10
1054.564796732846
 20
3978.438523292164
 11
1057.064796732847
 21
3978.438523292164
 72
     1
 10
1057.064796732847
 20
3978.438523292164
 11
1057.564796732846
 21
3978.438523292164
 72
     3
 10
1057.564796732846
 20
3975.771856625498
 11
0.0000000000001833
 21
2.66666666666667
 40
1.0
 50
-0.000000000001374
 51
22.0243128370362
 73
     0
 72
     3
 10
1057.564796732846
 20
3975.771856625498
 11
0.9999999999999538
 21
2.472066162365241
 40
1.0
 50
-0.0000000000009669
 51
67.97568716295891
 73
     0
 72
     1
 10
1060.231463399513
 20
3975.771856625498
 11
1060.231463399513
 21
3960.355189958831
 97
        0
 75
     0
 76
     1
 52
0.0
 41
423.3333333333333
 77
     0
 78
     1
 53
45.0
 43
0.0
 44
0.0
 45
-37.41773383778814
 46
37.41773383778815
 79
     0
 98
        1
 10
1704.398130066174
 20
3833.605189958831
  0
HATCH
  5
426
330
6C
100
AcDbEntity
  8
Kreskowanie (ISO)
100
AcDbHatch
 10
0.0
 20
0.0
 30
0.0
210
0.0
220
0.0
230
1.0
  2
ANSI31
 70
     0
 71
     0
 91
        1
 92
        1
 93
       28
 72
     3
 10
2346.814796732841
 20
3960.355189958829
 11
-1.75
 21
0.0000000000000013
 40
1.0
 50
0.000000000000043
 51
180.0
 73
     1
 72
     1
 10
2348.564796732841
 20
3960.355189958829
 11
2348.564796732841
 21
3975.771856625496
 72
     3
 10
2351.231463399507
 20
3975.771856625497
 11
-2.666666666666666
 21
0.0000000000000011
 40
1.0
 50
0.0
 51
67.97568716297071
 73
     0
 72
     3
 10
2351.231463399507
 20
3975.771856625497
 11
-0.9999999999994717
 21
2.472066162365441
 40
1.0
 50
0.0000000000008651
 51
22.0243128370248
 73
     0
 72
     1
 10
2351.231463399507
 20
3978.438523292163
 11
2351.731463399508
 21
3978.438523292163
 72
     1
 10
2351.731463399508
 20
3978.438523292163
 11
2354.231463399508
 21
3978.438523292163
 72
     1
 10
2354.231463399508
 20
3978.438523292163
 11
2378.564796732841
 21
3978.438523292163
 72
     1
 10
2378.564796732841
 20
3978.438523292163
 11
2378.564796732841
 21
3980.10518995883
 72
     1
 10
2378.564796732841
 20
3980.10518995883
 11
2351.231463399507
 21
3980.10518995883
 72
     3
 10
2351.231463399507
 20
3975.771856625497
 11
-0.0000000000001762
 21
4.333333333333333
 40
1.0
 50
0.0
 51
89.99999999999765
 73
     1
 72
     1
 10
2346.898130066174
 20
3975.771856625497
 11
2346.898130066174
 21
3960.35518995883
 72
     3
 10
2346.814796732841
 20
3960.355189958829
 11
0.0833333333333334
 21
-0.0000000000000038
 40
1.0
 50
-0.0000000000127731
 51
179.9999999999974
 73
     0
 72
     1
 10
2346.731463399507
 20
3960.355189958829
 11
2346.731463399419
 21
3977.605189958739
 72
     3
 10
2349.398130066175
 20
3977.605189958829
 11
-2.666666666666667
 21
-0.0000000000902221
 40
1.0
 50
-0.0000000000003562
 51
90.00000000191304
 73
     0
 72
     1
 10
2349.398130066173
 20
3980.271856625497
 11
2507.398130066175
 21
3980.271856625497
 72
     3
 10
2507.398130066174
 20
3977.605189958829
 11
0.0000000000013343
 21
2.666666666666631
 40
1.0
 50
-0.0000000000006616
 51
90.00000000000314
 73
     0
 72
     1
 10
2510.064796732841
 20
3977.605189958828
 11
2510.064796732841
 21
3962.938523292164
 72
     3
 10
2507.398130066175
 20
3962.938523292163
 11
2.666666666666758
 21
-0.0000000000000242
 40
1.0
 50
-0.0000000000005089
 51
89.99999999999948
 73
     0
 72
     1
 10
2507.398130066175
 20
3960.271856625496
 11
2506.731463399509
 21
3960.271856625496
 72
     1
 10
2506.731463399509
 20
3960.271856625496
 11
2498.398130066175
 21
3960.271856625496
 72
     1
 10
2498.398130066175
 20
3960.271856625496
 11
2498.398130066175
 21
3958.60518995883
 72
     1
 10
2498.398130066175
 20
3958.605189958829
 11
2507.398130066175
 21
3958.605189958829
 72
     3
 10
2507.398130066175
 20
3962.938523292163
 11
-0.0000000000000921
 21
-4.333333333333408
 40
1.0
 50
0.0
 51
90.0000000000014
 73
     1
 72
     1
 10
2511.731463399508
 20
3962.938523292163
 11
2511.731463399507
 21
3977.605189958828
 72
     3
 10
2507.398130066174
 20
3977.605189958829
 11
4.333333333333301
 21
-0.0000000000014794
 40
1.0
 50
0.0
 51
90.00000000000232
 73
     1
 72
     1
 10
2507.398130066175
 20
3981.938523292163
 11
2349.398130066173
 21
3981.938523292163
 72
     3
 10
2349.398130066175
 20
3977.605189958829
 11
-0.0000000000011431
 21
4.333333333333332
 40
1.0
 50
0.0
 51
90.000000001178
 73
     1
 72
     1
 10
2345.064796732841
 20
3977.605189958739
 11
2345.064796732841
 21
3960.35518995883
 97
        0
 75
     0
 76
     1
 52
90.0
 41
423.3333333333333
 77
     0
 78
     1
 53
135.0
 43
0.0
 44
0.0
 45
-37.41773383778815
 46
-37.41773383778814
 79
     0
 98
        1
 10
1704.398130066174
 20
3833.605189958831
  0
HATCH
  5
430
330
6C
100
AcDbEntity
  8
Kreskowanie (ISO)
100
AcDbHatch
 10
0.0
 20
0.0
 30
0.0
210
0.0
220
0.0
230
1.0
  2
ANSI31
 70
     0
 71
     0
 91
        1
 92
        1
 93
        9
 72
     1
 10
2350.231463399508
 20
3978.438523292164
 11
2348.564796732842
 21
3978.438523292164
 72
     1
 10
2348.564796732842
 20
3978.438523292164
 11
2348.564796732842
 21
3975.771856625497
 72
     1
 10
2348.564796732842
 20
3975.771856625497
 11
2348.564796732842
 21
3960.355189958829
 72
     1
 10
2348.564796732842
 20
3960.355189958829
 11
2348.564796732842
 21
3875.371381625014
 72
     1
 10
2348.564796732842
 20
3875.371381625014
 11
2348.564796732842
 21
3872.03804829168
 72
     1
 10
2348.564796732842
 20
3872.03804829168
 11
2348.564796732842
 21
3828.438523292163
 72
     1
 10
2348.564796732842
 20
3828.438523292163
 11
2350.231463399508
 21
3828.438523292163
 72
     1
 10
2350.231463399508
 20
3828.438523292163
 11
2350.231463399508
 21
3978.243922787862
 72
     1
 10
2350.231463399508
 20
3978.243922787862
 11
2350.231463399508
 21
3978.438523292164
 97
        0
 75
     0
 76
     1
 52
15.0
 41
423.3333333333333
 77
     0
 78
     1
 53
60.0
 43
0.0
 44
0.0
 45
-45.82717761692655
 46
26.45833333333334
 79
     0
 98
        1
 10
1704.398130066174
 20
3833.605189958831
  0
HATCH
  5
43A
330
6C
100
AcDbEntity
  8
Kreskowanie (ISO)
100
AcDbHatch
 10
0.0
 20
0.0
 30
0.0
210
0.0
220
0.0
230
1.0
  2
ANSI31
 70
     0
 71
     0
 91
        1
 92
        1
 93
        9
 72
     1
 10
1058.564796732846
 20
3828.438523292165
 11
1060.231463399513
 21
3828.438523292165
 72
     1
 10
1060.231463399513
 20
3828.438523292165
 11
1060.231463399513
 21
3872.038048291681
 72
     1
 10
1060.231463399513
 20
3872.038048291681
 11
1060.231463399512
 21
3875.371381625014
 72
     1
 10
1060.231463399513
 20
3875.371381625014
 11
1060.231463399513
 21
3960.355189958832
 72
     1
 10
1060.231463399513
 20
3960.355189958831
 11
1060.231463399513
 21
3975.771856625498
 72
     1
 10
1060.231463399513
 20
3975.771856625498
 11
1060.231463399513
 21
3978.438523292164
 72
     1
 10
1060.231463399513
 20
3978.438523292164
 11
1058.564796732846
 21
3978.438523292164
 72
     1
 10
1058.564796732846
 20
3978.438523292164
 11
1058.564796732846
 21
3978.243922787863
 72
     1
 10
1058.564796732846
 20
3978.243922787863
 11
1058.564796732846
 21
3828.438523292163
 97
        0
 75
     0
 76
     1
 52
75.0
 41
423.3333333333333
 77
     0
 78
     1
 53
120.0
 43
0.0
 44
0.0
 45
-45.82717761692655
 46
-26.45833333333334
 79
     0
 98
        1
 10
1704.398130066174
 20
3833.605189958831
  0
HATCH
  5
443
330
6C
100
AcDbEntity
  8
Kreskowanie (ISO)
100
AcDbHatch
 10
0.0
 20
0.0
 30
0.0
210
0.0
220
0.0
230
1.0
  2
ANSI31
 70
     0
 71
     0
 91
        2
 92
        1
 93
        4
 72
     1
 10
1065.231463399508
 20
3795.371381625014
 11
1061.898130066175
 21
3795.371381625014
 72
     1
 10
1061.898130066175
 20
3795.371381625014
 11
1061.898130066174
 21
3705.371381625013
 72
     1
 10
1061.898130066174
 20
3705.371381625014
 11
1065.231463399508
 21
3705.371381625014
 72
     1
 10
1065.231463399508
 20
3705.371381625014
 11
1065.231463399508
 21
3795.371381625014
 97
        0
 92
        1
 93
        4
 72
     1
 10
1065.231463399508
 20
3868.704714958347
 11
1061.898130066174
 21
3868.704714958347
 72
     1
 10
1061.898130066175
 20
3868.704714958347
 11
1061.898130066175
 21
3813.704714958347
 72
     1
 10
1061.898130066175
 20
3813.704714958348
 11
1065.231463399508
 21
3813.704714958348
 72
     1
 10
1065.231463399508
 20
3813.704714958348
 11
1065.231463399508
 21
3868.704714958347
 97
        0
 75
     0
 76
     1
 52
-15.0
 41
423.3333333333333
 77
     0
 78
     1
 53
30.0
 43
0.0
 44
0.0
 45
-26.45833333333334
 46
45.82717761692655
 79
     0
 98
        1
 10
1704.398130066174
 20
3833.605189958831
  0
HATCH
  5
44C
330
6C
100
AcDbEntity
  8
Kreskowanie (ISO)
100
AcDbHatch
 10
0.0
 20
0.0
 30
0.0
210
0.0
220
0.0
230
1.0
  2
ANSI31
 70
     0
 71
     0
 91
        2
 92
        1
 93
        4
 72
     1
 10
2346.898130066174
 20
3795.371381625013
 11
2343.56479673284
 21
3795.371381625013
 72
     1
 10
2343.56479673284
 20
3795.371381625013
 11
2343.564796732841
 21
3705.371381625013
 72
     1
 10
2343.56479673284
 20
3705.371381625013
 11
2346.898130066174
 21
3705.371381625013
 72
     1
 10
2346.898130066174
 20
3705.371381625013
 11
2346.898130066174
 21
3795.371381625013
 97
        0
 92
        1
 93
        4
 72
     1
 10
2346.898130066174
 20
3868.704714958346
 11
2343.56479673284
 21
3868.704714958346
 72
     1
 10
2343.56479673284
 20
3868.704714958346
 11
2343.56479673284
 21
3813.704714958347
 72
     1
 10
2343.56479673284
 20
3813.704714958347
 11
2346.898130066174
 21
3813.704714958347
 72
     1
 10
2346.898130066174
 20
3813.704714958347
 11
2346.898130066174
 21
3868.704714958347
 97
        0
 75
     0
 76
     1
 52
75.0
 41
423.3333333333333
 77
     0
 78
     1
 53
120.0
 43
0.0
 44
0.0
 45
-45.82717761692655
 46
-26.45833333333334
 79
     0
 98
        1
 10
1704.398130066174
 20
3833.605189958831
  0
HATCH
  5
453
330
6C
100
AcDbEntity
  8
Kreskowanie (ISO)
100
AcDbHatch
 10
0.0
 20
0.0
 30
0.0
210
0.0
220
0.0
230
1.0
  2
ANSI31
 70
     0
 71
     0
 91
        1
 92
        1
 93
        6
 72
     1
 10
1090.231463399508
 20
3825.371381625013
 11
1090.231463399508
 21
3822.454714958347
 72
     1
 10
1090.231463399508
 20
3822.454714958347
 11
1090.231463399508
 21
3786.621381625014
 72
     1
 10
1090.231463399508
 20
3786.621381625014
 11
1090.231463399508
 21
3783.704714958348
 72
     3
 10
1090.231463399508
 20
3787.038048291681
 11
0.0000000000004
 21
-3.333333333333333
 40
1.0
 50
0.0
 51
89.99999999999287
 73
     1
 72
     1
 10
1093.564796732841
 20
3787.038048291681
 11
1093.564796732841
 21
3822.038048291681
 72
     3
 10
1090.231463399508
 20
3822.03804829168
 11
3.333333333333351
 21
0.0000000000000151
 40
1.0
 50
0.0
 51
89.99999999999159
 73
     1
 97
        0
 75
     0
 76
     1
 52
-15.0
 41
423.3333333333333
 77
     0
 78
     1
 53
30.0
 43
0.0
 44
0.0
 45
-26.45833333333334
 46
45.82717761692655
 79
     0
 98
        1
 10
1704.398130066174
 20
3833.605189958831
  0
HATCH
  5
45A
330
6C
100
AcDbEntity
  8
Kreskowanie (ISO)
100
AcDbHatch
 10
0.0
 20
0.0
 30
0.0
210
0.0
220
0.0
230
1.0
  2
ANSI31
 70
     0
 71
     0
 91
        1
 92
        1
 93
        6
 72
     1
 10
2318.564796732839
 20
3783.704714958348
 11
2318.564796732839
 21
3786.621381625013
 72
     1
 10
2318.564796732839
 20
3786.621381625014
 11
2318.564796732839
 21
3822.454714958347
 72
     1
 10
2318.564796732839
 20
3822.454714958347
 11
2318.564796732839
 21
3825.371381625014
 72
     3
 10
2318.564796732839
 20
3822.038048291681
 11
-0.0000000000004359
 21
3.333333333333351
 40
1.0
 50
0.0000000000006494
 51
89.99999999999237
 73
     1
 72
     1
 10
2315.231463399506
 20
3822.038048291681
 11
2315.231463399506
 21
3787.038048291681
 72
     3
 10
2318.564796732839
 20
3787.038048291682
 11
-3.333333333333336
 21
-0.000000000000014
 40
1.0
 50
0.0000000000000133
 51
89.99999999999161
 73
     1
 97
        0
 75
     0
 76
     1
 52
105.0
 41
423.3333333333333
 77
     0
 78
     1
 53
150.0
 43
0.0
 44
0.0
 45
-26.45833333333334
 46
-45.82717761692655
 79
     0
 98
        1
 10
1704.398130066174
 20
3833.605189958831
  0
HATCH
  5
467
330
6C
100
AcDbEntity
  8
Kreskowanie (ISO)
100
AcDbHatch
 10
0.0
 20
0.0
 30
0.0
210
0.0
220
0.0
230
1.0
  2
ANSI31
 70
     0
 71
     0
 91
        2
 92
        1
 93
        6
 72
     1
 10
1178.699470906734
 20
3712.097648218739
 11
1172.75793232918
 21
3712.097648218738
 72
     3
 10
1184.564796732837
 20
3717.53804829168
 11
-11.8068644036567
 21
-5.440400072941776
 40
1.0
 50
-0.0000000000000509
 51
65.26056253543434
 73
     1
 72
     1
 10
1184.564796732837
 20
3704.53804829168
 11
1221.564796732837
 21
3704.53804829168
 72
     1
 10
1221.564796732837
 20
3704.53804829168
 11
1221.564796732837
 21
3709.53804829168
 72
     1
 10
1221.564796732837
 20
3709.53804829168
 11
1184.564796732837
 21
3709.53804829168
 72
     3
 10
1184.564796732837
 20
3717.53804829168
 11
0.0000000000000417
 21
-7.999999999999957
 40
1.0
 50
-0.0000000000005598
 51
47.15244894402469
 73
     0
 97
        0
 92
        1
 93
        6
 72
     1
 10
1221.564796732837
 20
3766.204714958347
 11
1184.564796732837
 21
3766.204714958347
 72
     3
 10
1184.564796732837
 20
3753.204714958346
 11
0.000000000000059
 21
13.00000000000002
 40
1.0
 50
0.0000000000002602
 51
65.26056253543524
 73
     1
 72
     1
 10
1172.75793232918
 20
3758.645115031288
 11
1178.699470906734
 21
3758.645115031288
 72
     3
 10
1184.564796732837
 20
3753.204714958346
 11
-5.8653258261026
 21
5.440400072940777
 40
1.0
 50
0.0000000000001527
 51
47.15244894402565
 73
     0
 72
     1
 10
1184.564796732837
 20
3761.204714958347
 11
1221.564796732837
 21
3761.204714958347
 72
     1
 10
1221.564796732837
 20
3761.204714958347
 11
1221.564796732837
 21
3766.204714958347
 97
        0
 75
     0
 76
     1
 52
75.0
 41
423.3333333333333
 77
     0
 78
     1
 53
120.0
 43
0.0
 44
0.0
 45
-45.82717761692655
 46
-26.45833333333334
 79
     0
 98
        1
 10
1704.398130066174
 20
3833.605189958831
  0
HATCH
  5
480
330
6C
100
AcDbEntity
  8
Kreskowanie (ISO)
100
AcDbHatch
 10
0.0
 20
0.0
 30
0.0
210
0.0
220
0.0
230
1.0
  2
ANSI31
 70
     0
 71
     0
 91
        2
 92
        1
 93
       13
 72
     1
 10
1226.898130066169
 20
3773.704714958348
 11
1178.231463399503
 21
3773.704714958348
 72
     3
 10
1178.231463399503
 20
3760.704714958348
 11
0.0000000000001699
 21
13.00000000000001
 40
1.0
 50
0.0
 51
90.00000000000014
 73
     1
 72
     1
 10
1165.231463399503
 20
3760.704714958348
 11
1165.231463399503
 21
3751.954505576784
 72
     1
 10
1165.231463399503
 20
3751.954505576784
 11
1170.231463399503
 21
3751.954505576784
 72
     1
 10
1170.231463399503
 20
3751.954505576784
 11
1170.231463399503
 21
3756.137941282304
 72
     1
 10
1170.231463399503
 20
3756.137941282303
 11
1170.231463399503
 21
3760.704714958348
 72
     3
 10
1178.231463399503
 20
3760.704714958348
 11
-7.999999999999966
 21
0.0000000000001439
 40
1.0
 50
0.0000000000000509
 51
33.55730976192123
 73
     0
 72
     3
 10
1178.231463399503
 20
3760.704714958348
 11
-6.666666666666464
 21
4.422166387140725
 40
1.0
 50
-0.0000000000006616
 51
25.11048353081617
 73
     0
 72
     3
 10
1178.231463399503
 20
3760.704714958348
 11
-4.159994658119624
 21
6.833333333331331
 40
1.0
 50
0.0000000000002544
 51
31.33220670726265
 73
     0
 72
     1
 10
1178.231463399503
 20
3768.704714958349
 11
1178.564796732837
 21
3768.704714958349
 72
     1
 10
1178.564796732837
 20
3768.704714958349
 11
1226.898130066169
 21
3768.704714958349
 72
     1
 10
1226.898130066169
 20
3768.704714958349
 11
1226.898130066169
 21
3769.204714958347
 72
     1
 10
1226.898130066169
 20
3769.204714958347
 11
1226.898130066169
 21
3773.704714958349
 97
        0
 92
        1
 93
       11
 72
     1
 10
1178.231463399503
 20
3697.038048291682
 11
1226.898130066169
 21
3697.038048291682
 72
     1
 10
1226.898130066169
 20
3697.038048291682
 11
1226.898130066169
 21
3702.038048291682
 72
     1
 10
1226.898130066169
 20
3702.038048291682
 11
1178.231463399503
 21
3702.038048291682
 72
     3
 10
1178.231463399503
 20
3710.038048291682
 11
0.0000000000000458
 21
-8.000000000000051
 40
1.0
 50
-0.0000000000001018
 51
43.18342179615133
 73
     0
 72
     3
 10
1178.231463399502
 20
3710.038048291681
 11
-5.474689235215961
 21
-5.833333333334928
 40
1.0
 50
0.0000000000002036
 51
13.25926844192809
 73
     0
 72
     3
 10
1178.231463399503
 20
3710.038048291682
 11
-6.666666666666476
 21
-4.422166387140674
 40
1.0
 50
-0.0000000000001018
 51
33.55730976192123
 73
     0
 72
     1
 10
1170.231463399503
 20
3710.038048291681
 11
1170.231463399503
 21
3714.604821967726
 72
     1
 10
1170.231463399503
 20
3714.604821967726
 11
1170.231463399503
 21
3718.788257673246
 72
     1
 10
1170.231463399503
 20
3718.788257673246
 11
1165.231463399503
 21
3718.788257673246
 72
     1
 10
1165.231463399503
 20
3718.788257673246
 11
1165.231463399503
 21
3710.038048291682
 72
     3
 10
1178.231463399503
 20
3710.038048291682
 11
-13.0
 21
-0.0000000000001789
 40
1.0
 50
0.0
 51
89.99999999999948
 73
     1
 97
        0
 75
     0
 76
     1
 52
-15.0
 41
423.3333333333333
 77
     0
 78
     1
 53
30.0
 43
0.0
 44
0.0
 45
-26.45833333333334
 46
45.82717761692655
 79
     0
 98
        1
 10
1704.398130066174
 20
3833.605189958831
  0
HATCH
  5
49D
330
6C
100
AcDbEntity
  8
Kreskowanie (ISO)
100
AcDbHatch
 10
0.0
 20
0.0
 30
0.0
210
0.0
220
0.0
230
1.0
  2
ANSI31
 70
     0
 71
     0
 91
        2
 92
        1
 93
       13
 72
     1
 10
1170.231463399502
 20
3756.137941282303
 11
1170.231463399502
 21
3751.954505576783
 72
     1
 10
1170.231463399502
 20
3751.954505576784
 11
1165.231463399502
 21
3751.954505576784
 72
     1
 10
1165.231463399502
 20
3751.954505576784
 11
1165.231463399502
 21
3749.439667471784
 72
     4
 94
        3
 73
     0
 74
     0
 95
       14
 96
       10
 40
0.2228199379095576
 40
0.2228199379095576
 40
0.2228199379095576
 40
0.2228199379095576
 40
0.2789038929791343
 40
0.2789038929791343
 40
0.3348467940115836
 40
0.3348467940115836
 40
0.3905091955287647
 40
0.3905091955287647
 40
0.4458820237024774
 40
0.4458820237024774
 40
0.4458820237024774
 40
0.4458820237024774
 10
1165.231463399502
 20
3749.439667471783
 10
1165.231463399502
 20
3749.128089943619
 10
1165.304074192933
 20
3748.761315253381
 10
1165.541239745187
 20
3748.185903497566
 10
1165.747513931895
 20
3747.875187137191
 10
1166.184669264411
 20
3747.435492078319
 10
1166.492492942105
 20
3747.228255651844
 10
1167.061889340972
 20
3746.990964805699
 10
1167.423836576315
 20
3746.918387008796
 10
1167.731463399502
 20
3746.918387008796
 72
     1
 10
1167.731463399502
 20
3746.918387008796
 11
1171.564796732836
 21
3746.918387008796
 72
     1
 10
1171.564796732836
 20
3746.918387008796
 11
1211.898130066169
 21
3746.918387008795
 72
     1
 10
1211.898130066169
 20
3746.918387008796
 11
1211.898130066169
 21
3749.187887454386
 72
     1
 10
1211.898130066169
 20
3749.187887454386
 11
1190.231463399501
 21
3749.187887454386
 72
     1
 10
1190.231463399501
 20
3749.187887454386
 11
1190.231463399501
 21
3749.439667471783
 72
     1
 10
1190.231463399501
 20
3749.439667471783
 11
1176.898130066168
 21
3749.439667471783
 72
     1
 10
1176.898130066168
 20
3749.439667471783
 11
1176.898130066168
 21
3756.137941282303
 72
     1
 10
1176.898130066168
 20
3756.137941282303
 11
1171.564796732836
 21
3756.137941282303
 72
     1
 10
1171.564796732836
 20
3756.137941282303
 11
1170.231463399502
 21
3756.137941282303
 97
        0
 92
        1
 93
       15
 72
     1
 10
1170.231463399502
 20
3718.788257673246
 11
1170.231463399502
 21
3714.604821967726
 72
     1
 10
1170.231463399502
 20
3714.604821967726
 11
1171.564796732836
 21
3714.604821967726
 72
     1
 10
1171.564796732836
 20
3714.604821967726
 11
1176.898130066168
 21
3714.604821967726
 72
     1
 10
1176.898130066168
 20
3714.604821967726
 11
1176.898130066167
 21
3714.637513705061
 72
     1
 10
1176.898130066167
 20
3714.637513705061
 11
1176.898130066167
 21
3720.42689148569
 72
     1
 10
1176.898130066168
 20
3720.426891485689
 11
1176.898130066168
 21
3721.303095778246
 72
     1
 10
1176.898130066168
 20
3721.303095778246
 11
1190.231463399501
 21
3721.303095778246
 72
     1
 10
1190.231463399501
 20
3721.303095778246
 11
1190.231463399501
 21
3721.554875795643
 72
     1
 10
1190.231463399501
 20
3721.554875795643
 11
1211.898130066168
 21
3721.554875795643
 72
     1
 10
1211.898130066168
 20
3721.554875795643
 11
1211.898130066168
 21
3723.824376241234
 72
     1
 10
1211.898130066168
 20
3723.824376241234
 11
1171.564796732836
 21
3723.824376241234
 72
     1
 10
1171.564796732836
 20
3723.824376241234
 11
1167.731463399501
 21
3723.824376241235
 72
     4
 94
        3
 73
     0
 74
     0
 95
       14
 96
       10
 40
0.4458820237024391
 40
0.4458820237024391
 40
0.4458820237024391
 40
0.4458820237024391
 40
0.5012548518761514
 40
0.5012548518761514
 40
0.5569172533933321
 40
0.5569172533933321
 40
0.612860154425781
 40
0.612860154425781
 40
0.6689441094953575
 40
0.6689441094953575
 40
0.6689441094953575
 40
0.6689441094953575
 10
1167.731463399502
 20
3723.824376241235
 10
1167.423836576315
 20
3723.824376241235
 10
1167.061889340972
 20
3723.751798444332
 10
1166.492492942105
 20
3723.514507598185
 10
1166.184669264411
 20
3723.307271171711
 10
1165.747513931895
 20
3722.86757611284
 10
1165.541239745186
 20
3722.556859752463
 10
1165.304074192933
 20
3721.981447996649
 10
1165.231463399502
 20
3721.614673306412
 10
1165.231463399501
 20
3721.303095778247
 72
     1
 10
1165.231463399501
 20
3721.303095778247
 11
1165.231463399501
 21
3718.788257673247
 72
     1
 10
1165.231463399501
 20
3718.788257673246
 11
1170.231463399502
 21
3718.788257673246
 97
        0
 75
     0
 76
     1
 52
105.0
 41
423.3333333333333
 77
     0
 78
     1
 53
150.0
 43
0.0
 44
0.0
 45
-26.45833333333334
 46
-45.82717761692655
 79
     0
 98
        1
 10
1704.398130066174
 20
3833.605189958831
  0
HATCH
  5
4B3
330
6C
100
AcDbEntity
  8
Kreskowanie (ISO)
100
AcDbHatch
 10
0.0
 20
0.0
 30
0.0
210
0.0
220
0.0
230
1.0
  2
ANSI31
 70
     0
 71
     0
 91
        2
 92
        1
 93
       10
 72
     1
 10
1245.064796732836
 20
3744.385259813661
 11
1261.064796732836
 21
3744.385259813661
 72
     1
 10
1261.064796732836
 20
3744.385259813661
 11
1261.064796732836
 21
3755.301816196844
 72
     1
 10
1261.064796732836
 20
3755.301816196844
 11
1254.39813006617
 21
3755.301816196844
 72
     1
 10
1254.39813006617
 20
3755.301816196844
 11
1254.39813006617
 21
3749.439667471785
 72
     1
 10
1254.39813006617
 20
3749.439667471785
 11
1241.064796732836
 21
3749.439667471784
 72
     1
 10
1241.064796732836
 20
3749.439667471784
 11
1241.064796732836
 21
3746.497239894019
 72
     1
 10
1241.064796732836
 20
3746.497239894019
 11
1230.231463399502
 21
3746.497239894019
 72
     1
 10
1230.231463399502
 20
3746.497239894019
 11
1230.231463399502
 21
3742.038048291682
 72
     1
 10
1230.231463399502
 20
3742.038048291681
 11
1245.064796732836
 21
3742.038048291681
 72
     1
 10
1245.064796732836
 20
3742.038048291681
 11
1245.064796732836
 21
3744.385259813661
 97
        0
 92
        1
 93
       11
 72
     1
 10
1261.064796732836
 20
3726.357503436369
 11
1245.064796732836
 21
3726.357503436369
 72
     1
 10
1245.064796732836
 20
3726.35750343637
 11
1245.064796732836
 21
3728.704714958348
 72
     1
 10
1245.064796732836
 20
3728.704714958348
 11
1230.231463399502
 21
3728.704714958348
 72
     1
 10
1230.231463399502
 20
3728.704714958348
 11
1230.231463399502
 21
3724.245523356011
 72
     1
 10
1230.231463399502
 20
3724.245523356011
 11
1241.064796732836
 21
3724.245523356011
 72
     1
 10
1241.064796732836
 20
3724.245523356011
 11
1241.064796732836
 21
3721.303095778246
 72
     1
 10
1241.064796732836
 20
3721.303095778245
 11
1254.39813006617
 21
3721.303095778245
 72
     1
 10
1254.39813006617
 20
3721.303095778246
 11
1254.398130066169
 21
3720.317762169968
 72
     1
 10
1254.398130066169
 20
3720.317762169968
 11
1254.39813006617
 21
3715.440947053186
 72
     1
 10
1254.39813006617
 20
3715.440947053185
 11
1261.064796732836
 21
3715.440947053185
 72
     1
 10
1261.064796732836
 20
3715.440947053185
 11
1261.064796732836
 21
3726.357503436369
 97
        0
 75
     0
 76
     1
 52
0.0
 41
423.3333333333333
 77
     0
 78
     1
 53
45.0
 43
0.0
 44
0.0
 45
-37.41773383778814
 46
37.41773383778815
 79
     0
 98
        1
 10
1704.398130066174
 20
3833.605189958831
  0
HATCH
  5
4BE
330
6C
100
AcDbEntity
  8
Kreskowanie (ISO)
100
AcDbHatch
 10
0.0
 20
0.0
 30
0.0
210
0.0
220
0.0
230
1.0
  2
ANSI31
 70
     0
 71
     0
 91
        2
 92
        1
 93
        5
 72
     4
 94
        2
 73
     1
 74
     0
 95
        6
 96
        3
 40
0.0
 40
0.0
 40
0.0
 40
0.1420627856630327
 40
0.1420627856630327
 40
0.1420627856630327
 10
1161.898130066169
 20
3722.142625069702
 42
1.0
 10
1161.008230992698
 20
3723.039559027931
 42
1.002270337896302
 10
1160.231463399503
 20
3723.824376241234
 42
1.0
 72
     1
 10
1160.231463399503
 20
3723.824376241234
 11
1141.064796732836
 21
3723.824376241235
 72
     1
 10
1141.064796732836
 20
3723.824376241235
 11
1131.224253360658
 21
3723.824376241133
 72
     3
 10
1148.564796732836
 20
3735.371381625014
 11
-17.34054337217812
 21
-11.54700538388145
 40
1.0
 50
0.0
 51
96.13231652178814
 73
     1
 72
     1
 10
1161.898130066169
 20
3719.363571031433
 11
1161.89813006617
 21
3722.142625069702
 97
        0
 92
        1
 93
        5
 72
     4
 94
        2
 73
     1
 74
     0
 95
        6
 96
        3
 40
0.0
 40
0.0
 40
0.0
 40
0.1420627856630313
 40
0.1420627856630313
 40
0.1420627856630313
 10
1160.231463399503
 20
3746.918387008796
 42
1.0
 10
1161.008230992684
 20
3747.703204222083
 42
1.002270337972158
 10
1161.898130066169
 20
3748.600138180327
 42
1.0
 72
     1
 10
1161.898130066169
 20
3748.600138180327
 11
1161.898130066169
 21
3751.379192218597
 72
     3
 10
1148.564796732836
 20
3735.371381625014
 11
13.3333333333333
 21
16.00781059358216
 40
1.0
 50
0.0000000000000356
 51
96.13231652178944
 73
     1
 72
     1
 10
1131.224253360658
 20
3746.918387008896
 11
1141.064796732836
 21
3746.918387008794
 72
     1
 10
1141.064796732836
 20
3746.918387008794
 11
1160.231463399503
 21
3746.918387008795
 97
        0
 75
     0
 76
     1
 52
90.0
 41
423.3333333333333
 77
     0
 78
     1
 53
135.0
 43
0.0
 44
0.0
 45
-37.41773383778815
 46
-37.41773383778814
 79
     0
 98
        1
 10
1704.398130066174
 20
3833.605189958831
  0
HATCH
  5
4D5
330
6C
100
AcDbEntity
  8
Kreskowanie (ISO)
100
AcDbHatch
 10
0.0
 20
0.0
 30
0.0
210
0.0
220
0.0
230
1.0
  2
ANSI31
 70
     0
 71
     0
 91
        2
 92
        1
 93
       11
 72
     3
 10
1141.231463399503
 20
3742.204714958348
 11
0.0
 21
-0.1666666666666667
 40
1.0
 50
270.0
 51
360.0
 73
     1
 72
     1
 10
1141.231463399503
 20
3742.038048291681
 11
1171.564796732836
 21
3742.038048291681
 72
     1
 10
1171.564796732836
 20
3742.038048291681
 11
1224.398130066169
 21
3742.038048291681
 72
     1
 10
1224.398130066169
 20
3742.038048291681
 11
1224.398130066169
 21
3746.918387008796
 72
     1
 10
1224.398130066169
 20
3746.918387008796
 11
1211.898130066169
 21
3746.918387008796
 72
     1
 10
1211.898130066169
 20
3746.918387008796
 11
1171.564796732836
 21
3746.918387008796
 72
     1
 10
1171.564796732836
 20
3746.918387008796
 11
1167.731463399501
 21
3746.918387008796
 72
     1
 10
1167.731463399501
 20
3746.918387008796
 11
1160.231463399503
 21
3746.918387008796
 72
     1
 10
1160.231463399503
 20
3746.918387008796
 11
1141.064796732836
 21
3746.918387008796
 72
     1
 10
1141.064796732836
 20
3746.918387008796
 11
1141.064796732836
 21
3746.204714958348
 72
     1
 10
1141.064796732836
 20
3746.204714958348
 11
1141.064796732836
 21
3742.204714958348
 97
        0
 92
        1
 93
       11
 72
     3
 10
1141.231463399503
 20
3728.538048291681
 11
-0.1666666666666667
 21
0.0
 40
1.0
 50
270.0
 51
360.0
 73
     1
 72
     1
 10
1141.064796732836
 20
3728.538048291681
 11
1141.064796732836
 21
3724.538048291681
 72
     1
 10
1141.064796732836
 20
3724.538048291682
 11
1141.064796732836
 21
3723.824376241234
 72
     1
 10
1141.064796732836
 20
3723.824376241234
 11
1160.231463399503
 21
3723.824376241234
 72
     1
 10
1160.231463399503
 20
3723.824376241234
 11
1167.731463399501
 21
3723.824376241234
 72
     1
 10
1167.731463399501
 20
3723.824376241234
 11
1171.564796732836
 21
3723.824376241234
 72
     1
 10
1171.564796732836
 20
3723.824376241234
 11
1211.898130066168
 21
3723.824376241234
 72
     1
 10
1211.898130066169
 20
3723.824376241234
 11
1224.398130066169
 21
3723.824376241233
 72
     1
 10
1224.398130066169
 20
3723.824376241234
 11
1224.398130066169
 21
3728.704714958348
 72
     1
 10
1224.398130066169
 20
3728.704714958348
 11
1171.564796732836
 21
3728.704714958348
 72
     1
 10
1171.564796732836
 20
3728.704714958348
 11
1141.231463399503
 21
3728.704714958348
 97
        0
 75
     0
 76
     1
 52
15.0
 41
423.3333333333333
 77
     0
 78
     1
 53
60.0
 43
0.0
 44
0.0
 45
-45.82717761692655
 46
26.45833333333334
 79
     0
 98
        1
 10
1704.398130066174
 20
3833.605189958831
  0
HATCH
  5
4EA
330
6C
100
AcDbEntity
  8
Kreskowanie (ISO)
100
AcDbHatch
 10
0.0
 20
0.0
 30
0.0
210
0.0
220
0.0
230
1.0
  2
ANSI31
 70
     0
 71
     0
 91
       15
 92
        1
 93
        1
 72
     4
 94
        3
 73
     0
 74
     0
 95
       43
 96
       39
 40
-0.0760474221253728
 40
-0.0760474221253728
 40
-0.0760474221253728
 40
-0.0760474221253728
 40
-0.0686866870750241
 40
-0.0686866870750241
 40
0.0
 40
0.0
 40
0.0
 40
0.0390795069482084
 40
0.0390795069482084
 40
0.0781924378699777
 40
0.0781924378699777
 40
0.1474052848368544
 40
0.1474052848368544
 40
0.21635050064635
 40
0.21635050064635
 40
0.2847109468235798
 40
0.2847109468235798
 40
0.3525103805748909
 40
0.3525103805748909
 40
0.4202199853548409
 40
0.4202199853548409
 40
0.4884486474811098
 40
0.4884486474811098
 40
0.5574051380225167
 40
0.5574051380225167
 40
0.6267420788992196
 40
0.6267420788992196
 40
0.695927691500336
 40
0.695927691500336
 40
0.7646464183420295
 40
0.7646464183420295
 40
0.8328948300356815
 40
0.8328948300356815
 40
0.9008829921956216
 40
0.9008829921956216
 40
0.9688940914507123
 40
0.9688940914507123
 40
1.029815117670823
 40
1.029815117670823
 40
1.029815117670823
 40
1.029815117670823
 10
1186.120352531462
 20
3756.137941282303
 10
1186.07954062828
 20
3756.137941282303
 10
1186.038695232186
 20
3756.137083120992
 10
1185.616630583134
 20
3756.11931247644
 10
1185.242290570934
 20
3756.028535944619
 10
1184.895837355381
 20
3755.868588569884
 10
1184.698721707197
 20
3755.777586007256
 10
1184.512316790787
 20
3755.664970198779
 10
1184.167550358953
 20
3755.400681597592
 10
1184.010256466031
 20
3755.249775915971
 10
1183.624496363336
 20
3754.787834997271
 10
1183.438000759439
 20
3754.447238241764
 10
1183.206449991162
 20
3753.715417744778
 10
1183.162967180893
 20
3753.331084002569
 10
1183.22538489181
 20
3752.570861529025
 10
1183.329458737987
 20
3752.201882298645
 10
1183.671738840894
 20
3751.527447324292
 10
1183.905605250945
 20
3751.22789091122
 10
1184.474899277582
 20
3750.7355809742
 10
1184.804489241961
 20
3750.547629295109
 10
1185.520418539809
 20
3750.307803404006
 10
1185.899756679765
 20
3750.259457841959
 10
1186.660021153297
 20
3750.311290523872
 10
1187.033303904279
 20
3750.41252667431
 10
1187.721968046473
 20
3750.753126127872
 10
1188.03060582974
 20
3750.990066706701
 10
1188.53909957069
 20
3751.567797078949
 10
1188.734634970125
 20
3751.903182193891
 10
1188.985322164825
 20
3752.627206441706
 10
1189.039120895176
 20
3753.008855702175
 10
1188.997463986635
 20
3753.768627998153
 10
1188.903414207756
 20
3754.139524402387
 10
1188.578801986456
 20
3754.823134486044
 10
1188.351929839771
 20
3755.129365697049
 10
1187.793171785653
 20
3755.637711806754
 10
1187.466776463154
 20
3755.834756082091
 10
1186.793616612274
 20
3756.079153911058
 10
1186.458131707979
 20
3756.137941282303
 10
1186.120352531462
 20
3756.137941282303
 97
        0
 92
        1
 93
        1
 72
     4
 94
        3
 73
     0
 74
     0
 95
       43
 96
       39
 40
-1.035477103447014
 40
-1.035477103447014
 40
-1.035477103447014
 40
-1.035477103447014
 40
-1.027281456075305
 40
-1.027281456075305
 40
-0.9589780844793137
 40
-0.9589780844793137
 40
-0.890219690154131
 40
-0.890219690154131
 40
-0.821107742027419
 40
-0.821107742027419
 40
-0.7519678030971228
 40
-0.7519678030971228
 40
-0.683246920840861
 40
-0.683246920840861
 40
-0.6152283479400804
 40
-0.6152283479400804
 40
-0.5477179077507426
 40
-0.5477179077507426
 40
-0.4800765521980414
 40
-0.4800765521980414
 40
-0.411724438196072
 40
-0.411724438196072
 40
-0.3426501349154783
 40
-0.3426501349154783
 40
-0.2733480289296779
 40
-0.2733480289296779
 40
-0.2043403921980977
 40
-0.2043403921980977
 40
-0.1358566414897683
 40
-0.1358566414897683
 40
-0.0678251320648876
 40
-0.0678251320648876
 40
0.0
 40
0.0
 40
0.0
 40
0.0384513175362231
 40
0.0384513175362231
 40
0.068720666541531
 40
0.068720666541531
 40
0.068720666541531
 40
0.068720666541531
 10
1183.215950592078
 20
3714.604821967725
 10
1183.261434843881
 20
3714.604821967725
 10
1183.306936518621
 20
3714.605892581456
 10
1183.7314664897
 20
3714.625896975316
 10
1184.103278785494
 20
3714.717969065754
 10
1184.793159277461
 20
3715.040478133597
 10
1185.104113743419
 20
3715.2686704493
 10
1185.622524916364
 20
3715.832755483282
 10
1185.824497649819
 20
3716.163807684635
 10
1186.090325625324
 20
3716.884645940371
 10
1186.151666247998
 20
3717.267788698546
 10
1186.124199079117
 20
3718.033392419841
 10
1186.036545256122
 20
3718.408900260565
 10
1185.723897727923
 20
3719.101367722515
 10
1185.503185365337
 20
3719.41250584494
 10
1184.956839437172
 20
3719.930623178799
 10
1184.637298624016
 20
3720.133323414652
 10
1183.937391062181
 20
3720.405086906023
 10
1183.564086632199
 20
3720.471101227152
 10
1182.808707910423
 20
3720.456225054992
 10
1182.434352278121
 20
3720.373947846713
 10
1181.734302056345
 20
3720.069025471384
 10
1181.415954279542
 20
3719.847878374107
 10
1180.88106029549
 20
3719.29544440605
 10
1180.669735571824
 20
3718.968847361904
 10
1180.384843708106
 20
3718.254961097893
 10
1180.313269674181
 20
3717.874387195449
 10
1180.320116610496
 20
3717.110372019994
 10
1180.397344336349
 20
3716.734082956394
 10
1180.690932059554
 20
3716.034670322065
 10
1180.90355610451
 20
3715.717944400676
 10
1181.43770483703
 20
3715.184655771237
 10
1181.753662317085
 20
3714.973033096121
 10
1182.101411028022
 20
3714.827933772691
 10
1182.298556182038
 20
3714.745674291734
 10
1182.504191691324
 20
3714.685517282181
 10
1182.880210233847
 20
3714.619426046855
 10
1183.047961581616
 20
3714.604821967725
 10
1183.215950592078
 20
3714.604821967725
 97
        0
 92
        1
 93
        1
 72
     4
 94
        3
 73
     0
 74
     0
 95
       43
 96
       39
 40
-1.047924883300108
 40
-1.047924883300108
 40
-1.047924883300108
 40
-1.047924883300108
 40
-1.030821788609643
 40
-1.030821788609643
 40
-0.9613160030737628
 40
-0.9613160030737628
 40
-0.891723128996969
 40
-0.891723128996969
 40
-0.8222410751089405
 40
-0.8222410751089405
 40
-0.7536573537013311
 40
-0.7536573537013311
 40
-0.6860148232222208
 40
-0.6860148232222208
 40
-0.6187111581237908
 40
-0.6187111581237908
 40
-0.5507197868024764
 40
-0.5507197868024764
 40
-0.4813742704468423
 40
-0.4813742704468423
 40
-0.4114048473147053
 40
-0.4114048473147053
 40
-0.34137010765319
 40
-0.34137010765319
 40
-0.2721779296447748
 40
-0.2721779296447748
 40
-0.2039572199164784
 40
-0.2039572199164784
 40
-0.1362236811922465
 40
-0.1362236811922465
 40
-0.0683852329161302
 40
-0.0683852329161302
 40
0.0
 40
0.0
 40
0.0
 40
0.0396131069343071
 40
0.0396131069343071
 40
0.0622030266593201
 40
0.0622030266593201
 40
0.0622030266593201
 40
0.0622030266593201
 10
1212.812165214044
 20
3756.137941282303
 10
1212.717286372002
 20
3756.137941282303
 10
1212.622388534636
 20
3756.133365199201
 10
1212.143424532195
 20
3756.087052872435
 10
1211.769907831058
 20
3755.974979588439
 10
1211.086188501056
 20
3755.614496684322
 10
1210.782287875853
 20
3755.369196503613
 10
1210.285639472118
 20
3754.777114093784
 10
1210.097165973164
 20
3754.435799741103
 10
1209.863369363241
 20
3753.705206085735
 10
1209.818347872626
 20
3753.323187438546
 10
1209.877073205358
 20
3752.568753774084
 10
1209.978253071042
 20
3752.203392708155
 10
1210.314469774521
 20
3751.533538772785
 10
1210.545435506667
 20
3751.235551934735
 10
1211.112055772569
 20
3750.741976896454
 10
1211.442655812265
 20
3750.552757559211
 10
1212.16553221088
 20
3750.308836307296
 10
1212.551336742675
 20
3750.259419978196
 10
1213.323700476985
 20
3750.310991403512
 10
1213.703127016577
 20
3750.412846934394
 10
1214.401817361405
 20
3750.755151328256
 10
1214.715128323477
 20
3750.992840755153
 10
1215.229568246077
 20
3751.570753257104
 10
1215.42752055634
 20
3751.9046765658
 10
1215.682082849136
 20
3752.624493240818
 10
1215.738208057675
 20
3753.002768982154
 10
1215.701966507912
 20
3753.757143498622
 10
1215.611001564418
 20
3754.125653768144
 10
1215.29222600493
 20
3754.807890814407
 10
1215.067452756052
 20
3755.114557430297
 10
1214.510460067292
 20
3755.626738251844
 10
1214.183040399195
 20
3755.826239466247
 10
1213.826511626652
 20
3755.957483099118
 10
1213.619987326161
 20
3756.033507817346
 10
1213.405537173467
 20
3756.085952237653
 10
1213.062765714442
 20
3756.129958305285
 10
1212.937482033258
 20
3756.137941282303
 10
1212.812165214044
 20
3756.137941282303
 97
        0
 92
        1
 93
        1
 72
     4
 94
        3
 73
     0
 74
     0
 95
       43
 96
       39
 40
-0.069501948967765
 40
-0.069501948967765
 40
-0.069501948967765
 40
-0.069501948967765
 40
0.0
 40
0.0
 40
0.0
 40
0.0395882073006457
 40
0.0395882073006457
 40
0.0791905722764026
 40
0.0791905722764026
 40
0.1487594585983764
 40
0.1487594585983764
 40
0.2174660918312463
 40
0.2174660918312463
 40
0.2852069972509836
 40
0.2852069972509836
 40
0.3525165666041585
 40
0.3525165666041585
 40
0.4204055030933186
 40
0.4204055030933186
 40
0.4896231353836395
 40
0.4896231353836395
 40
0.559887493810712
 40
0.559887493810712
 40
0.6301083621623074
 40
0.6301083621623074
 40
0.6994275468532346
 40
0.6994275468532346
 40
0.7677479632797097
 40
0.7677479632797097
 40
0.8355224463730031
 40
0.8355224463730031
 40
0.9033467238636532
 40
0.9033467238636532
 40
0.9716854657193032
 40
0.9716854657193032
 40
1.040740625535516
 40
1.040740625535516
 40
1.040918030653855
 40
1.040918030653855
 40
1.040918030653855
 40
1.040918030653855
 10
1205.768891118076
 20
3714.604821967725
 10
1206.154938780069
 20
3714.604821967725
 10
1206.537351264487
 20
3714.680567453707
 10
1206.894557159764
 20
3714.827176116251
 10
1207.09802110921
 20
3714.910684193522
 10
1207.291632473887
 20
3715.016495613394
 10
1207.652090633855
 20
3715.268741912356
 10
1207.817879738907
 20
3715.41445799347
 10
1208.226525239409
 20
3715.86263792229
 10
1208.429107810038
 20
3716.196259838123
 10
1208.693151496457
 20
3716.917553980169
 10
1208.753943746248
 20
3717.29802043879
 10
1208.726264192171
 20
3718.055305714007
 10
1208.640118003826
 20
3718.425007755155
 10
1208.331624961069
 20
3719.108524244717
 10
1208.113239672676
 20
3719.415793832443
 10
1207.568080795111
 20
3719.931922187531
 10
1207.246242961506
 20
3720.134389170333
 10
1206.53553709803
 20
3720.407665788889
 10
1206.15298496738
 20
3720.47295847752
 10
1205.378432110051
 20
3720.453563598443
 10
1204.993673175541
 20
3720.366792149046
 10
1204.279729502583
 20
3720.051419204431
 10
1203.956575671104
 20
3719.825584712187
 10
1203.419023216174
 20
3719.266969967426
 10
1203.20792638435
 20
3718.940427992668
 10
1202.925238170897
 20
3718.230040917621
 10
1202.854354829411
 20
3717.85376780303
 10
1202.861236808395
 20
3717.097975831225
 10
1202.937770235914
 20
3716.72607645437
 10
1203.229660475282
 20
3716.031986116917
 10
1203.442148866405
 20
3715.716924525182
 10
1203.97828203928
 20
3715.183759176303
 10
1204.297310816093
 20
3714.971807445748
 10
1205.002518248495
 20
3714.680385853036
 10
1205.382350587875
 20
3714.605207748937
 10
1205.766920305595
 20
3714.604822461323
 10
1205.767905723677
 20
3714.604821967725
 10
1205.768891118076
 20
3714.604821967725
 97
        0
 92
        1
 93
        1
 72
     4
 94
        3
 73
     0
 74
     0
 95
       43
 96
       39
 40
-0.0686529012604215
 40
-0.0686529012604215
 40
-0.0686529012604215
 40
-0.0686529012604215
 40
-0.0682613357899009
 40
-0.0682613357899009
 40
0.0
 40
0.0
 40
0.0
 40
0.0388939154011387
 40
0.0388939154011387
 40
0.0778424670501825
 40
0.0778424670501825
 40
0.1469714482176644
 40
0.1469714482176644
 40
0.2161198752471672
 40
0.2161198752471672
 40
0.2848405076158087
 40
0.2848405076158087
 40
0.3528569779055941
 40
0.3528569779055941
 40
0.4203743232216438
 40
0.4203743232216438
 40
0.488036603562002
 40
0.488036603562002
 40
0.5564161899276692
 40
0.5564161899276692
 40
0.6255116678258308
 40
0.6255116678258308
 40
0.6948230362363172
 40
0.6948230362363172
 40
0.7638318210955852
 40
0.7638318210955852
 40
0.8323152126513024
 40
0.8323152126513024
 40
0.9003497071662719
 40
0.9003497071662719
 40
0.9681832598960546
 40
0.9681832598960546
 40
1.035717436946565
 40
1.035717436946565
 40
1.035717436946565
 40
1.035717436946565
 10
1180.124048679934
 20
3756.137941282303
 10
1180.121873778184
 20
3756.137941282303
 10
1180.119698754658
 20
3756.137938834421
 10
1179.738332746024
 20
3756.137080329523
 10
1179.363044592388
 20
3756.061836568787
 10
1179.012644135249
 20
3755.916803324402
 10
1178.812993109104
 20
3755.834166342979
 10
1178.623151704669
 20
3755.729589021664
 10
1178.269710704257
 20
3755.480375274977
 10
1178.107236096112
 20
3755.336450525763
 10
1177.704352809498
 20
3754.891214308401
 10
1177.504926250484
 20
3754.558590829397
 10
1177.244667587997
 20
3753.835719850402
 10
1177.186280284545
 20
3753.452138234921
 10
1177.219636498805
 20
3752.686859996597
 10
1177.31015410265
 20
3752.312106082889
 10
1177.628050502078
 20
3751.622194727181
 10
1177.851098422083
 20
3751.312827791765
 10
1178.401334155062
 20
3750.798994412778
 10
1178.722404605798
 20
3750.59877919985
 10
1179.424413918414
 20
3750.332409600249
 10
1179.798273961351
 20
3750.269279232639
 10
1180.553661536734
 20
3750.290005828345
 10
1180.927463785936
 20
3750.375203801278
 10
1181.625268011643
 20
3750.6856015449
 10
1181.941948294607
 20
3750.909236987666
 10
1182.472592052606
 20
3751.465824652494
 10
1182.681391719129
 20
3751.794031841589
 10
1182.960753209398
 20
3752.51003638536
 10
1183.029389105318
 20
3752.891094693965
 10
1183.016665961664
 20
3753.654923413817
 10
1182.936558128663
 20
3754.030546705513
 10
1182.637634900156
 20
3754.727589202353
 10
1182.422598803154
 20
3755.042634335877
 10
1181.884389005476
 20
3755.571759619884
 10
1181.566812713108
 20
3755.780933834943
 10
1180.870646637294
 20
3756.065124546101
 10
1180.499158874498
 20
3756.137941282303
 10
1180.124048679934
 20
3756.137941282303
 97
        0
 92
        1
 93
        3
 72
     4
 94
        3
 73
     0
 74
     0
 95
       26
 96
       22
 40
-1.035524930403988
 40
-1.035524930403988
 40
-1.035524930403988
 40
-1.035524930403988
 40
-1.027281278291038
 40
-1.027281278291038
 40
-0.958977597714005
 40
-0.958977597714005
 40
-0.8902188889953899
 40
-0.8902188889953899
 40
-0.8211067798017323
 40
-0.8211067798017323
 40
-0.7519669752755885
 40
-0.7519669752755885
 40
-0.6832465290175385
 40
-0.6832465290175385
 40
-0.6152284488751195
 40
-0.6152284488751195
 40
-0.547718172070439
 40
-0.547718172070439
 40
-0.4800764719465027
 40
-0.4800764719465027
 40
-0.4555532350987603
 40
-0.4555532350987603
 40
-0.4555532350987603
 40
-0.4555532350987603
 10
1177.33212795606
 20
3714.604821967725
 10
1177.377878420974
 20
3714.604821967734
 10
1177.423646437656
 20
3714.605905150454
 10
1177.848439001326
 20
3714.626039250354
 10
1178.22022761853
 20
3714.718214319865
 10
1178.910022325626
 20
3715.040915091808
 10
1179.220915351577
 20
3715.269194207042
 10
1179.739172819104
 20
3715.833424092612
 10
1179.941054939364
 20
3716.164532694218
 10
1180.20668453529
 20
3716.885444226291
 10
1180.267919859897
 20
3717.268603050109
 10
1180.240242568241
 20
3718.034195970363
 10
1180.152486472879
 20
3718.409677304649
 10
1179.839651358791
 20
3719.102054278806
 10
1179.618855443143
 20
3719.413129515674
 10
1179.072370217778
 20
3719.931094525091
 10
1178.752774532002
 20
3720.13370630218
 10
1178.052791336619
 20
3720.405277666408
 10
1177.679466729502
 20
3720.471189188451
 10
1177.167537336159
 20
3720.460966029939
 10
1177.032009139129
 20
3720.448617224954
 10
1176.898130066169
 20
3720.426891485689
 72
     1
 10
1176.898130066169
 20
3720.426891485689
 11
1176.898130066169
 21
3714.637513705061
 72
     4
 94
        3
 73
     0
 74
     0
 95
        8
 96
        4
 40
-1.061697116960166
 40
-1.061697116960166
 40
-1.061697116960166
 40
-1.061697116960166
 40
-1.035524930403988
 40
-1.035524930403988
 40
-1.035524930403988
 40
-1.035524930403988
 10
1176.898130066169
 20
3714.637513705061
 10
1177.041805050676
 20
3714.615740021944
 10
1177.186878049057
 20
3714.604821967697
 10
1177.33212795606
 20
3714.604821967725
 97
        0
 92
        1
 93
        1
 72
     4
 94
        3
 73
     0
 74
     0
 95
       43
 96
       39
 40
-1.075652850004884
 40
-1.075652850004884
 40
-1.075652850004884
 40
-1.075652850004884
 40
-1.07047001506992
 40
-1.07047001506992
 40
-1.030655695131077
 40
-1.030655695131077
 40
-0.9610922120650815
 40
-0.9610922120650815
 40
-0.8915039397634277
 40
-0.8915039397634277
 40
-0.8223376335126452
 40
-0.8223376335126452
 40
-0.7541566999858711
 40
-0.7541566999858711
 40
-0.6867530358908227
 40
-0.6867530358908227
 40
-0.6192928216211467
 40
-0.6192928216211467
 40
-0.550780617861143
 40
-0.550780617861143
 40
-0.48100365733863
 40
-0.48100365733863
 40
-0.4109585283644934
 40
-0.4109585283644934
 40
-0.3411431052247613
 40
-0.3411431052247613
 40
-0.2723719324259903
 40
-0.2723719324259903
 40
-0.2044141891216221
 40
-0.2044141891216221
 40
-0.1367001096758432
 40
-0.1367001096758432
 40
-0.0686757432993389
 40
-0.0686757432993389
 40
0.0
 40
0.0
 40
0.0
 40
0.0345555226620602
 40
0.0345555226620602
 40
0.0345555226620602
 40
0.0345555226620602
 10
1227.655486230711
 20
3756.137941282303
 10
1227.626712136683
 20
3756.137941282303
 10
1227.597929332313
 20
3756.137520403887
 10
1227.348043247101
 20
3756.130208579217
 10
1227.128349187249
 20
3756.098917755454
 10
1226.540012448288
 20
3755.946742398436
 10
1226.188164954775
 20
3755.77779636266
 10
1225.568567393228
 20
3755.315287078714
 10
1225.306437292541
 20
3755.025852125833
 10
1224.908839050691
 20
3754.365352660514
 10
1224.776175904026
 20
3754.000701927268
 10
1224.659122354758
 20
3753.246750594873
 10
1224.673732721237
 20
3752.864759167064
 10
1224.847798530839
 20
3752.132109533505
 10
1225.003931856832
 20
3751.788251222072
 10
1225.439846136691
 20
3751.179200188832
 10
1225.715171844699
 20
3750.920445502339
 10
1226.355134143955
 20
3750.519481030854
 10
1226.714187381641
 20
3750.383457577993
 10
1227.471609611314
 20
3750.255080153666
 10
1227.862988565139
 20
3750.26669119074
 10
1228.620566595992
 20
3750.438905231844
 10
1228.980025265476
 20
3750.598562413733
 10
1229.61640379049
 20
3751.044721533356
 10
1229.888209562857
 20
3751.327033316961
 10
1230.304726577403
 20
3751.974721484903
 10
1230.44751745117
 20
3752.332960002848
 10
1230.586499366455
 20
3753.079717818473
 10
1230.583028489329
 20
3753.460543400051
 10
1230.430097315906
 20
3754.198435044294
 10
1230.282697219717
 20
3754.548079412517
 10
1229.860792073307
 20
3755.172870842768
 10
1229.590015592505
 20
3755.441292989551
 10
1228.957543913439
 20
3755.861449593738
 10
1228.601373358771
 20
3756.00782992665
 10
1228.227108644035
 20
3756.081941461043
 10
1228.03879014597
 20
3756.119232106665
 10
1227.847331788354
 20
3756.137941282303
 10
1227.655486230711
 20
3756.137941282303
 97
        0
 92
        1
 93
        1
 72
     4
 94
        3
 73
     0
 74
     0
 95
       43
 96
       39
 40
-0.0348064305150966
 40
-0.0348064305150966
 40
-0.0348064305150966
 40
-0.0348064305150966
 40
0.0
 40
0.0
 40
0.0
 40
0.0398635185103196
 40
0.0398635185103196
 40
0.0797681566104669
 40
0.0797681566104669
 40
0.1493648835789786
 40
0.1493648835789786
 40
0.2185390838482473
 40
0.2185390838482473
 40
0.2867279605316952
 40
0.2867279605316952
 40
0.354140268787369
 40
0.354140268787369
 40
0.4216104183677003
 40
0.4216104183677003
 40
0.4901337375181898
 40
0.4901337375181898
 40
0.5599213367179024
 40
0.5599213367179024
 40
0.6299771456053663
 40
0.6299771456053663
 40
0.6998025046580521
 40
0.6998025046580521
 40
0.7685836551390564
 40
0.7685836551390564
 40
0.8365519770352161
 40
0.8365519770352161
 40
0.9042774533828447
 40
0.9042774533828447
 40
0.9723139966148202
 40
0.9723139966148202
 40
1.041002504136258
 40
1.041002504136258
 40
1.0755667283969
 40
1.0755667283969
 40
1.0755667283969
 40
1.0755667283969
 10
1220.612212134742
 20
3714.604821967725
 10
1220.804658841644
 20
3714.604821967725
 10
1220.997120323728
 20
3714.623649213137
 10
1221.186806743531
 20
3714.661207899158
 10
1221.404053039547
 20
3714.704223553257
 10
1221.615820442862
 20
3714.771444563291
 10
1222.020689190888
 20
3714.951660587371
 10
1222.212558272919
 20
3715.064162567396
 10
1222.699937770772
 20
3715.428258810808
 10
1222.961959484462
 20
3715.717791438093
 10
1223.359308093728
 20
3716.378435120537
 10
1223.491833312982
 20
3716.74313074502
 10
1223.608604079123
 20
3717.497115609428
 10
1223.593851188774
 20
3717.879095928374
 10
1223.419513962887
 20
3718.611672978653
 10
1223.263252705911
 20
3718.955470283597
 10
1222.827110027143
 20
3719.56435877268
 10
1222.551684262224
 20
3719.823011674165
 10
1221.911561983002
 20
3720.223740870917
 10
1221.552449892352
 20
3720.359631086604
 10
1220.794969675784
 20
3720.487724090566
 10
1220.403592555477
 20
3720.475966095162
 10
1219.646076036167
 20
3720.303469021234
 10
1219.286676091094
 20
3720.14367814466
 10
1218.650466948989
 20
3719.69728524813
 10
1218.378769544818
 20
3719.414876650651
 10
1217.962498073031
 20
3718.767043180359
 10
1217.819842371895
 20
3718.408757065137
 10
1217.681138809206
 20
3717.661956152408
 10
1217.684751610689
 20
3717.281134965138
 10
1217.837956560505
 20
3716.543302883497
 10
1217.985487539753
 20
3716.193713327726
 10
1218.407627362126
 20
3715.569076674052
 10
1218.678506447138
 20
3715.30075390176
 10
1219.311140652937
 20
3714.880829808603
 10
1219.667369769531
 20
3714.734581337821
 10
1220.230011635144
 20
3714.623385975861
 10
1220.421104599809
 20
3714.604821967725
 10
1220.612212134742
 20
3714.604821967725
 97
        0
 92
        1
 93
        4
 72
     4
 94
        3
 73
     0
 74
     0
 95
       27
 96
       23
 40
-0.0671339948039678
 40
-0.0671339948039678
 40
-0.0671339948039678
 40
-0.0671339948039678
 40
0.0
 40
0.0
 40
0.0
 40
0.0390793084959793
 40
0.0390793084959793
 40
0.0782219618183922
 40
0.0782219618183922
 40
0.1475293975752926
 40
0.1475293975752926
 40
0.2165170647265644
 40
0.2165170647265644
 40
0.2849786654957439
 40
0.2849786654957439
 40
0.353001574861156
 40
0.353001574861156
 40
0.420837795501627
 40
0.420837795501627
 40
0.4887795704281958
 40
0.4887795704281958
 40
0.5425951474895139
 40
0.5425951474895139
 40
0.5425951474895139
 40
0.5425951474895139
 10
1253.490973104709
 20
3720.464261775024
 10
1253.11817777157
 20
3720.464261775024
 10
1252.748954290576
 20
3720.39205159453
 10
1252.403193802406
 20
3720.252216699988
 10
1252.201923479935
 20
3720.170817537042
 10
1252.010350072702
 20
3720.067210988997
 10
1251.653272298836
 20
3719.819515035729
 10
1251.488870493743
 20
3719.676096316345
 10
1251.081203472767
 20
3719.232413975191
 10
1250.878482208518
 20
3718.900470277499
 10
1250.612366225162
 20
3718.179631047752
 10
1250.550740425559
 20
3717.797526366928
 10
1250.577435700257
 20
3717.034341332092
 10
1250.664373641335
 20
3716.660393745514
 10
1250.975915430314
 20
3715.969150902183
 10
1251.196641628595
 20
3715.658174168688
 10
1251.744396911617
 20
3715.139069479847
 10
1252.065759194715
 20
3714.9357677159
 10
1252.769118033079
 20
3714.663604931509
 10
1253.144249278305
 20
3714.597646619335
 10
1253.820435985597
 20
3714.611613315236
 10
1254.116030368935
 20
3714.663955746254
 10
1254.398116697128
 20
3714.760023395286
 72
     1
 10
1254.398116697128
 20
3714.760023395286
 11
1254.398116697128
 21
3715.440947053186
 72
     1
 10
1254.398116697128
 20
3715.440947053185
 11
1254.398116697127
 21
3720.317762169967
 72
     4
 94
        3
 73
     0
 74
     0
 95
       10
 96
        6
 40
-0.1227181804468376
 40
-0.1227181804468376
 40
-0.1227181804468376
 40
-0.1227181804468376
 40
-0.0683061815779889
 40
-0.0683061815779889
 40
-0.0671339948039678
 40
-0.0671339948039678
 40
-0.0671339948039678
 40
-0.0671339948039678
 10
1254.398116697128
 20
3720.317762169968
 10
1254.112176183665
 20
3720.412644083948
 10
1253.812749959268
 20
3720.462150507883
 10
1253.503992509036
 20
3720.464239758109
 10
1253.497482262405
 20
3720.464261775024
 10
1253.490973104709
 20
3720.464261775024
 97
        0
 92
        1
 93
        1
 72
     4
 94
        3
 73
     0
 74
     0
 95
       43
 96
       39
 40
-1.081401690384469
 40
-1.081401690384469
 40
-1.081401690384469
 40
-1.081401690384469
 40
-1.069327661905245
 40
-1.069327661905245
 40
-1.029948699342968
 40
-1.029948699342968
 40
-0.9600048144000657
 40
-0.9600048144000657
 40
-0.8906049593303634
 40
-0.8906049593303634
 40
-0.822014148650385
 40
-0.822014148650385
 40
-0.7540082822496798
 40
-0.7540082822496798
 40
-0.6861532072463435
 40
-0.6861532072463435
 40
-0.6180334692087886
 40
-0.6180334692087886
 40
-0.5493865286697281
 40
-0.5493865286697281
 40
-0.4801670450087754
 40
-0.4801670450087754
 40
-0.4105660491245635
 40
-0.4105660491245635
 40
-0.3409831193460179
 40
-0.3409831193460179
 40
-0.2719057478878646
 40
-0.2719057478878646
 40
-0.2036594019378135
 40
-0.2036594019378135
 40
-0.1360938214684171
 40
-0.1360938214684171
 40
-0.0684909596265141
 40
-0.0684909596265141
 40
0.0
 40
0.0
 40
0.0
 40
0.0273165621149392
 40
0.0273165621149392
 40
0.0273165621149392
 40
0.0273165621149392
 10
1242.308202725805
 20
3750.278501475004
 10
1242.37519427458
 20
3750.278501475004
 10
1242.442211124755
 20
3750.280790771997
 10
1242.727404709911
 20
3750.300294567602
 10
1242.943373865318
 20
3750.339463188053
 10
1243.525467302688
 20
3750.512936297942
 10
1243.872877807756
 20
3750.695942310383
 10
1244.475326105214
 20
3751.182286527924
 10
1244.725855787986
 20
3751.480475387634
 10
1245.096333618397
 20
3752.151718588513
 10
1245.214404423489
 20
3752.517774541873
 10
1245.303185887285
 20
3753.271391982364
 10
1245.274269751885
 20
3753.651451382491
 10
1245.072334408232
 20
3754.378561753507
 10
1244.901645391081
 20
3754.718389878441
 10
1244.4383378354
 20
3755.314805951968
 10
1244.149922797866
 20
3755.565044298326
 10
1243.490578981108
 20
3755.942364208055
 10
1243.125628735756
 20
3756.064715770019
 10
1242.36607591396
 20
3756.163047960483
 10
1241.978695767258
 20
3756.136849719099
 10
1241.233744321339
 20
3755.936939389076
 10
1240.883433949093
 20
3755.764324775771
 10
1240.268892483067
 20
3755.294767769725
 10
1240.010297872695
 20
3755.002181384255
 10
1239.621339051838
 20
3754.337093755726
 10
1239.493570269323
 20
3753.971191276453
 10
1239.386101830149
 20
3753.215848382112
 10
1239.405631228317
 20
3752.833624900441
 10
1239.589134499822
 20
3752.101857243614
 10
1239.749929488164
 20
3751.759014997008
 10
1240.194257166925
 20
3751.153833501198
 10
1240.47331483914
 20
3750.897735608822
 10
1241.118744394703
 20
3750.504173306242
 10
1241.479338053718
 20
3750.372487825277
 10
1241.855270793638
 20
3750.313675563186
 10
1242.005205764575
 20
3750.290219200197
 10
1242.15663949184
 20
3750.278501475004
 10
1242.308202725805
 20
3750.278501475004
 97
        0
 92
        1
 93
        1
 72
     4
 94
        3
 73
     0
 74
     0
 95
       43
 96
       39
 40
-0.0625388455944913
 40
-0.0625388455944913
 40
-0.0625388455944913
 40
-0.0625388455944913
 40
0.0
 40
0.0
 40
0.0
 40
0.0399407798351661
 40
0.0399407798351661
 40
0.0799014392165913
 40
0.0799014392165913
 40
0.1494622844634608
 40
0.1494622844634608
 40
0.2182594750863372
 40
0.2182594750863372
 40
0.2860757039327084
 40
0.2860757039327084
 40
0.3533860114549658
 40
0.3533860114549658
 40
0.4211804653419377
 40
0.4211804653419377
 40
0.4902710057371009
 40
0.4902710057371009
 40
0.560203655585056
 40
0.560203655585056
 40
0.6302722564457639
 40
0.6302722564457639
 40
0.6996953281395096
 40
0.6996953281395096
 40
0.7680981683425986
 40
0.7680981683425986
 40
0.8358987405972612
 40
0.8358987405972612
 40
0.9036935069545016
 40
0.9036935069545016
 40
0.9719680097631417
 40
0.9719680097631417
 40
1.040952042457264
 40
1.040952042457264
 40
1.047869858993481
 40
1.047869858993481
 40
1.047869858993481
 40
1.047869858993481
 10
1235.45553315141
 20
3714.604821967725
 10
1235.802334630864
 20
3714.604821967725
 10
1236.146817298941
 20
3714.665958127667
 10
1236.47313001596
 20
3714.785261087198
 10
1236.681531438531
 20
3714.861454582538
 10
1236.88078239423
 20
3714.960736253046
 10
1237.253615744601
 20
3715.201662060784
 10
1237.426078949653
 20
3715.342612363002
 10
1237.851469111712
 20
3715.777661957489
 10
1238.065559357342
 20
3716.103969052045
 10
1238.354957459764
 20
3716.815979774263
 10
1238.429153538215
 20
3717.194601216247
 10
1238.428049879666
 20
3717.95332933609
 10
1238.354857559297
 20
3718.326269861183
 10
1238.070399592596
 20
3719.020600289589
 10
1237.862996336652
 20
3719.335407468487
 10
1237.336763532307
 20
3719.870086470406
 10
1237.022774125168
 20
3720.083553660303
 10
1236.323355714429
 20
3720.381394325423
 10
1235.944106873511
 20
3720.460080396846
 10
1235.171912636756
 20
3720.468167742361
 10
1234.78616409853
 20
3720.395678257524
 10
1234.063590794585
 20
3720.107811107701
 10
1233.732992168015
 20
3719.894597905317
 10
1233.174917163488
 20
3719.356857169082
 10
1232.951307256802
 20
3719.037990365662
 10
1232.64159966733
 20
3718.337805304228
 10
1232.55643305613
 20
3717.964003008795
 10
1232.534721418341
 20
3717.207868769786
 10
1232.597111428435
 20
3716.833181846014
 10
1232.862467110395
 20
3716.128528848427
 10
1233.062726089801
 20
3715.805754035506
 10
1233.57784928572
 20
3715.25297321428
 10
1233.888275205605
 20
3715.029244354089
 10
1234.58119330879
 20
3714.711512556422
 10
1234.957489388899
 20
3714.622031573066
 10
1235.378780976314
 20
3714.605570047378
 10
1235.417171250314
 20
3714.604821967725
 10
1235.45553315141
 20
3714.604821967725
 97
        0
 92
        1
 93
        1
 72
     4
 94
        3
 73
     0
 74
     0
 95
       43
 96
       39
 40
-0.0386041792388973
 40
-0.0386041792388973
 40
-0.0386041792388973
 40
-0.0386041792388973
 40
0.0
 40
0.0
 40
0.0
 40
0.038888227320897
 40
0.038888227320897
 40
0.0778410005272086
 40
0.0778410005272086
 40
0.146993662002875
 40
0.146993662002875
 40
0.2160223383325817
 40
0.2160223383325817
 40
0.2846467383480162
 40
0.2846467383480162
 40
0.3528377581320756
 40
0.3528377581320756
 40
0.4207645561956053
 40
0.4207645561956053
 40
0.4886876564007517
 40
0.4886876564007517
 40
0.5568590987997268
 40
0.5568590987997268
 40
0.6254339302434568
 40
0.6254339302434568
 40
0.6943979834717126
 40
0.6943979834717126
 40
0.7635225142950263
 40
0.7635225142950263
 40
0.8324164811289874
 40
0.8324164811289874
 40
0.9007411134994134
 40
0.9007411134994134
 40
0.9685112373538963
 40
0.9685112373538963
 40
1.036175277994618
 40
1.036175277994618
 40
1.065682287471541
 40
1.065682287471541
 40
1.065682287471541
 40
1.065682287471541
 10
1247.615366093605
 20
3720.464261775024
 10
1247.401972450551
 20
3720.464261775024
 10
1247.188725024165
 20
3720.440594686225
 10
1246.979498168347
 20
3720.393472493614
 10
1246.768731829286
 20
3720.346003577703
 10
1246.563928566244
 20
3720.275157191884
 10
1246.173355304689
 20
3720.089483396728
 10
1245.988807170768
 20
3719.975149649714
 10
1245.516113471633
 20
3719.604603528966
 10
1245.262899841397
 20
3719.310516934445
 10
1244.883555638483
 20
3718.642979459543
 10
1244.7606020493
 20
3718.275661872059
 10
1244.662487537104
 20
3717.517127713487
 10
1244.687365605241
 20
3717.13301396261
 10
1244.88238452587
 20
3716.398331978858
 10
1245.049760600273
 20
3716.054561367445
 10
1245.50625616751
 20
3715.451739628623
 10
1245.790448580358
 20
3715.198264490449
 10
1246.440297771507
 20
3714.814658200138
 10
1246.799526529389
 20
3714.688319732019
 10
1247.547777845032
 20
3714.580418818824
 10
1247.929484242317
 20
3714.60045012758
 10
1248.666059717077
 20
3714.786354571393
 10
1249.013498246652
 20
3714.951246861
 10
1249.627464440957
 20
3715.406216519418
 10
1249.88758796312
 20
3715.692590574582
 10
1250.284011048925
 20
3716.349550873828
 10
1250.416305968387
 20
3716.714171064296
 10
1250.533702964259
 20
3717.472062405601
 10
1250.518225902475
 20
3717.858335256662
 10
1250.341093496778
 20
3718.599902100655
 10
1250.182246956236
 20
3718.948695657985
 10
1249.741677508359
 20
3719.563158062974
 10
1249.465111189269
 20
3719.823670076363
 10
1248.827834685806
 20
3720.223545594134
 10
1248.4736662063
 20
3720.359065087841
 10
1247.941665330057
 20
3720.450435944438
 10
1247.778472999956
 20
3720.464261775024
 10
1247.615366093605
 20
3720.464261775024
 97
        0
 92
        1
 93
        1
 72
     4
 94
        3
 73
     0
 74
     0
 95
       43
 96
       39
 40
-1.036599829817685
 40
-1.036599829817685
 40
-1.036599829817685
 40
-1.036599829817685
 40
-1.027571042535688
 40
-1.027571042535688
 40
-0.9591489321064409
 40
-0.9591489321064409
 40
-0.8900354342018948
 40
-0.8900354342018948
 40
-0.8207444352232078
 40
-0.8207444352232078
 40
-0.7517787295121169
 40
-0.7517787295121169
 40
-0.683339323540841
 40
-0.683339323540841
 40
-0.6153351578860261
 40
-0.6153351578860261
 40
-0.5475127743889616
 40
-0.5475127743889616
 40
-0.4795801559340373
 40
-0.4795801559340373
 40
-0.4113002416989776
 40
-0.4113002416989776
 40
-0.3425667417276672
 40
-0.3425667417276672
 40
-0.2734698965437007
 40
-0.2734698965437007
 40
-0.2043247000064844
 40
-0.2043247000064844
 40
-0.1355763758694433
 40
-0.1355763758694433
 40
-0.0675238009348258
 40
-0.0675238009348258
 40
0.0
 40
0.0
 40
0.0
 40
0.0382859158958298
 40
0.0382859158958298
 40
0.067570288526611
 40
0.067570288526611
 40
0.067570288526611
 40
0.067570288526611
 10
1250.340533548713
 20
3750.278501475004
 10
1250.390635447305
 20
3750.278501475004
 10
1250.440757762609
 20
3750.279805888895
 10
1250.87046489414
 20
3750.302200274717
 10
1251.242362276512
 20
3750.396672734745
 10
1251.932721597844
 20
3750.724384978145
 10
1252.243949318905
 20
3750.955843618416
 10
1252.760825444613
 20
3751.525394137565
 10
1252.96149768058
 20
3751.858568877787
 10
1253.223158266289
 20
3752.580982180578
 10
1253.282430172587
 20
3752.963413066995
 10
1253.251051815383
 20
3753.726330626741
 10
1253.161829226178
 20
3754.099689768191
 10
1252.846077820678
 20
3754.788936446075
 10
1252.623459620314
 20
3755.098524546403
 10
1252.072545181432
 20
3755.614227365342
 10
1251.749938570312
 20
3755.815542827846
 10
1251.044899434061
 20
3756.083373885889
 10
1250.669346486144
 20
3756.14701977471
 10
1249.912848798437
 20
3756.126725844342
 10
1249.539366082295
 20
3756.042239851402
 10
1248.84331670229
 20
3755.733881255039
 10
1248.527910586051
 20
3755.512113324993
 10
1247.998315488771
 20
3754.958792542191
 10
1247.789728185772
 20
3754.631959427561
 10
1247.509378601615
 20
3753.916675772387
 10
1247.440308821921
 20
3753.534807357287
 10
1247.452309900487
 20
3752.768594130148
 10
1247.532414824343
 20
3752.391226195517
 10
1247.831180826085
 20
3751.692251626554
 10
1248.045695578239
 20
3751.376547685911
 10
1248.581688256902
 20
3750.847309580605
 10
1248.897142898864
 20
3750.638131907115
 10
1249.244022073318
 20
3750.495306746952
 10
1249.440702158197
 20
3750.414325048734
 10
1249.645706978124
 20
3750.355408804452
 10
1250.015742852127
 20
3750.292223856197
 10
1250.178030809192
 20
3750.278501475004
 10
1250.340533548713
 20
3750.278501475004
 97
        0
 92
        1
 93
        1
 72
     4
 94
        3
 73
     0
 74
     0
 95
       43
 96
       39
 40
-1.03320968708186
 40
-1.03320968708186
 40
-1.03320968708186
 40
-1.03320968708186
 40
-1.030764545837492
 40
-1.030764545837492
 40
-0.9614030713568167
 40
-0.9614030713568167
 40
-0.8917686056149026
 40
-0.8917686056149026
 40
-0.8223043196082244
 40
-0.8223043196082244
 40
-0.753475357158497
 40
-0.753475357158497
 40
-0.6854860074655571
 40
-0.6854860074655571
 40
-0.6180068381569351
 40
-0.6180068381569351
 40
-0.5502206963001992
 40
-0.5502206963001992
 40
-0.4814034137132413
 40
-0.4814034137132413
 40
-0.4116358499456981
 40
-0.4116358499456981
 40
-0.3417369039027671
 40
-0.3417369039027671
 40
-0.2724574080092521
 40
-0.2724574080092521
 40
-0.2039861021718044
 40
-0.2039861021718044
 40
-0.1360460155306716
 40
-0.1360460155306716
 40
-0.0681850450537838
 40
-0.0681850450537838
 40
0.0
 40
0.0
 40
0.0
 40
0.038907066571575
 40
0.038907066571575
 40
0.0753994008435088
 40
0.0753994008435088
 40
0.0753994008435088
 40
0.0753994008435088
 10
1191.303301598165
 20
3714.604821967725
 10
1191.316881622506
 20
3714.604821967725
 10
1191.33046393322
 20
3714.604916134633
 10
1191.729374872642
 20
3714.610448855317
 10
1192.109958991727
 20
3714.691527667751
 10
1192.819993971869
 20
3714.995461050373
 10
1193.142569168936
 20
3715.21601283796
 10
1193.684247515576
 20
3715.76742619689
 10
1193.898657949674
 20
3716.092984388257
 10
1194.189198347782
 20
3716.804379998311
 10
1194.263944238559
 20
3717.183214751335
 10
1194.2639954915
 20
3717.943339649661
 10
1194.191097058479
 20
3718.317520126235
 10
1193.906938536781
 20
3719.014316866542
 10
1193.699487786271
 20
3719.330474272176
 10
1193.173459333501
 20
3719.866959652958
 10
1192.859875310791
 20
3720.081246014852
 10
1192.162304799067
 20
3720.379996161489
 10
1191.784686833873
 20
3720.459298581786
 10
1191.01475096491
 20
3720.468839099058
 10
1190.629816026174
 20
3720.396926253593
 10
1189.908780077685
 20
3720.109716250008
 10
1189.579143625846
 20
3719.896692620111
 10
1189.022866975014
 20
3719.359286551955
 10
1188.800182865857
 20
3719.040586356776
 10
1188.491446788344
 20
3718.340147486215
 10
1188.406690681239
 20
3717.965652166804
 10
1188.385781013204
 20
3717.208048932184
 10
1188.448700952864
 20
3716.832450235805
 10
1188.715175128211
 20
3716.126678615198
 10
1188.915897959925
 20
3715.803555431004
 10
1189.431476175125
 20
3715.250988652637
 10
1189.74167571779
 20
3715.027561602612
 10
1190.086083823435
 20
3714.869837491219
 10
1190.282606522563
 20
3714.779838540613
 10
1190.488537124941
 20
3714.712023683359
 10
1190.898462672688
 20
3714.625796555896
 10
1191.100627503654
 20
3714.604821967725
 10
1191.303301598165
 20
3714.604821967725
 97
        0
 92
        1
 93
        1
 72
     4
 94
        3
 73
     0
 74
     0
 95
       43
 96
       39
 40
-1.075629206915937
 40
-1.075629206915937
 40
-1.075629206915937
 40
-1.075629206915937
 40
-1.070470126217044
 40
-1.070470126217044
 40
-1.030655975601599
 40
-1.030655975601599
 40
-0.9610925321602447
 40
-0.9610925321602447
 40
-0.8915042434501218
 40
-0.8915042434501218
 40
-0.8223376367676355
 40
-0.8223376367676355
 40
-0.7541563645642667
 40
-0.7541563645642667
 40
-0.6867525498705568
 40
-0.6867525498705568
 40
-0.6192925454485304
 40
-0.6192925454485304
 40
-0.5507808213783719
 40
-0.5507808213783719
 40
-0.4810040026593755
 40
-0.4810040026593755
 40
-0.4109589131828779
 40
-0.4109589131828779
 40
-0.3411431728392879
 40
-0.3411431728392879
 40
-0.2723716544562578
 40
-0.2723716544562578
 40
-0.2044137271122727
 40
-0.2044137271122727
 40
-0.1366996713593845
 40
-0.1366996713593845
 40
-0.0686754894170337
 40
-0.0686754894170337
 40
0.0
 40
0.0
 40
0.0
 40
0.0345791017699495
 40
0.0345791017699495
 40
0.0345791017699495
 40
0.0345791017699495
 10
1197.968844197377
 20
3756.137941282303
 10
1197.940201902963
 20
3756.137941282303
 10
1197.911550964034
 20
3756.13752425072
 10
1197.661796758559
 20
3756.130249773809
 10
1197.442099447937
 20
3756.098988533369
 10
1196.853743413337
 20
3755.946892422131
 10
1196.501873537026
 20
3755.777993551004
 10
1195.882214204806
 20
3755.315567183117
 10
1195.620045369303
 20
3755.026167154478
 10
1195.222357721317
 20
3754.365719373754
 10
1195.08964527438
 20
3754.001084696896
 10
1194.972490433119
 20
3753.247145405886
 10
1194.987049852327
 20
3752.865150015797
 10
1195.161018431348
 20
3752.132474408706
 10
1195.317106023119
 20
3751.78859429898
 10
1195.752938476193
 20
3751.179485060256
 10
1196.028228408394
 20
3750.920694000031
 10
1196.66813338615
 20
3750.519645264243
 10
1197.027165569599
 20
3750.383574192705
 10
1197.784567007305
 20
3750.255094892552
 10
1198.175946601219
 20
3750.266653399066
 10
1198.933546640485
 20
3750.438766051117
 10
1199.293026287973
 20
3750.598375438459
 10
1199.929465463776
 20
3751.044450801837
 10
1200.20130996564
 20
3751.326727972204
 10
1200.617914919169
 20
3751.974364066188
 10
1200.76075410756
 20
3752.332585562589
 10
1200.899835725359
 20
3753.07932791337
 10
1200.89641557911
 20
3753.460155055798
 10
1200.743582478027
 20
3754.198068011143
 10
1200.596229170241
 20
3754.547731960369
 10
1200.174408097347
 20
3755.172578812242
 10
1199.903668302051
 20
3755.441036469346
 10
1199.271254858456
 20
3755.8612763456
 10
1198.915105251137
 20
3756.007703805395
 10
1198.540851841353
 20
3756.081865151287
 10
1198.352409838908
 20
3756.119206461101
 10
1198.160821193146
 20
3756.137941282303
 10
1197.968844197377
 20
3756.137941282303
 97
        0
 75
     0
 76
     1
 52
75.0
 41
423.3333333333333
 77
     0
 78
     1
 53
120.0
 43
0.0
 44
0.0
 45
-45.82717761692655
 46
-26.45833333333334
 79
     0
 98
        1
 10
1704.398130066174
 20
3833.605189958831
  0
HATCH
  5
4F6
330
6C
100
AcDbEntity
  8
Kreskowanie (ISO)
100
AcDbHatch
 10
0.0
 20
0.0
 30
0.0
210
0.0
220
0.0
230
1.0
  2
ANSI31
 70
     0
 71
     0
 91
        1
 92
        1
 93
       11
 72
     1
 10
2354.231463399508
 20
3965.271856625497
 11
2354.231463399508
 21
3978.438523292163
 72
     1
 10
2354.231463399508
 20
3978.438523292163
 11
2354.231463399508
 21
3978.605189958829
 72
     1
 10
2354.231463399508
 20
3978.60518995883
 11
2351.731463399508
 21
3978.60518995883
 72
     1
 10
2351.731463399508
 20
3978.60518995883
 11
2351.731463399508
 21
3978.438523292163
 72
     1
 10
2351.731463399508
 20
3978.438523292163
 11
2351.731463399508
 21
3965.271856625497
 72
     3
 10
2356.731463399508
 20
3965.271856625497
 11
-5.000000000000012
 21
0.000000000000001
 40
1.0
 50
0.0000000000000112
 51
90.0
 73
     1
 72
     1
 10
2356.731463399508
 20
3960.271856625496
 11
2498.398130066175
 21
3960.271856625496
 72
     1
 10
2498.398130066175
 20
3960.271856625496
 11
2506.731463399508
 21
3960.271856625496
 72
     1
 10
2506.731463399508
 20
3960.271856625496
 11
2506.731463399508
 21
3962.771856625496
 72
     1
 10
2506.731463399508
 20
3962.771856625496
 11
2356.731463399508
 21
3962.771856625496
 72
     3
 10
2356.731463399508
 20
3965.271856625497
 11
0.0000000000000277
 21
-2.499999999999986
 40
1.0
 50
0.0000000000006107
 51
90.00000000000095
 73
     0
 97
        0
 75
     0
 76
     1
 52
-15.0
 41
423.3333333333333
 77
     0
 78
     1
 53
30.0
 43
0.0
 44
0.0
 45
-26.45833333333334
 46
45.82717761692655
 79
     0
 98
        1
 10
1704.398130066174
 20
3833.605189958831
  0
HATCH
  5
502
330
6C
100
AcDbEntity
  8
Kreskowanie (ISO)
100
AcDbHatch
 10
0.0
 20
0.0
 30
0.0
210
0.0
220
0.0
230
1.0
  2
ANSI31
 70
     0
 71
     0
 91
        1
 92
        1
 93
       11
 72
     1
 10
1054.564796732846
 20
3978.605189958832
 11
1054.564796732846
 21
3978.438523292164
 72
     1
 10
1054.564796732846
 20
3978.438523292164
 11
1054.564796732846
 21
3965.271856625498
 72
     3
 10
1052.064796732846
 20
3965.271856625498
 11
2.499999999999976
 21
0.0000000000000148
 40
1.0
 50
0.0
 51
90.00000000000033
 73
     0
 72
     1
 10
1052.064796732846
 20
3962.771856625498
 11
902.0647967328464
 21
3962.771856625498
 72
     1
 10
902.0647967328464
 20
3962.771856625499
 11
902.0647967328464
 21
3960.271856625498
 72
     1
 10
902.0647967328464
 20
3960.271856625498
 11
910.3981300661796
 21
3960.271856625498
 72
     1
 10
910.3981300661796
 20
3960.271856625498
 11
1052.064796732846
 21
3960.271856625498
 72
     3
 10
1052.064796732846
 20
3965.271856625498
 11
-0.0000000000000055
 21
-5.00000000000001
 40
1.0
 50
0.0000000000000509
 51
90.00000000000005
 73
     1
 72
     1
 10
1057.064796732846
 20
3965.271856625498
 11
1057.064796732847
 21
3978.438523292164
 72
     1
 10
1057.064796732847
 20
3978.438523292164
 11
1057.064796732846
 21
3978.605189958831
 72
     1
 10
1057.064796732846
 20
3978.605189958832
 11
1054.564796732846
 21
3978.605189958832
 97
        0
 75
     0
 76
     1
 52
105.0
 41
423.3333333333333
 77
     0
 78
     1
 53
150.0
 43
0.0
 44
0.0
 45
-26.45833333333334
 46
-45.82717761692655
 79
     0
 98
        1
 10
1704.398130066174
 20
3833.605189958831
  0
HATCH
  5
509
330
6C
100
AcDbEntity
  8
Kreskowanie (ISO)
100
AcDbHatch
 10
0.0
 20
0.0
 30
0.0
210
0.0
220
0.0
230
1.0
  2
ANSI31
 70
     0
 71
     0
 91
        1
 92
        1
 93
        6
 72
     1
 10
1063.564796732841
 20
3796.204714958348
 11
1063.564796732841
 21
3797.871381625014
 72
     1
 10
1063.564796732841
 20
3797.871381625014
 11
1035.231463399507
 21
3797.871381625014
 72
     1
 10
1035.231463399507
 20
3797.871381625014
 11
843.5647967328417
 21
3797.871381625014
 72
     1
 10
843.5647967328415
 20
3797.871381625014
 11
843.5647967328415
 21
3796.204714958348
 72
     1
 10
843.5647967328415
 20
3796.204714958348
 11
1035.231463399507
 21
3796.204714958347
 72
     1
 10
1035.231463399507
 20
3796.204714958348
 11
1063.564796732841
 21
3796.204714958348
 97
        0
 75
     0
 76
     1
 52
0.0
 41
423.3333333333333
 77
     0
 78
     1
 53
45.0
 43
0.0
 44
0.0
 45
-37.41773383778814
 46
37.41773383778815
 79
     0
 98
        1
 10
1704.398130066174
 20
3833.605189958831
  0
HATCH
  5
524
330
6C
100
AcDbEntity
  8
Kreskowanie (ISO)
100
AcDbHatch
 10
0.0
 20
0.0
 30
0.0
210
0.0
220
0.0
230
1.0
  2
ANSI31
 70
     0
 71
     0
 91
        1
 92
        1
 93
       26
 72
     1
 10
1070.231463399508
 20
3815.788048291681
 11
1068.564796732842
 21
3815.788048291681
 72
     1
 10
1068.564796732842
 20
3815.788048291681
 11
1065.231463399508
 21
3813.288048291681
 72
     1
 10
1065.231463399508
 20
3813.28804829168
 11
1063.564796732842
 21
3813.28804829168
 72
     1
 10
1063.564796732842
 20
3813.28804829168
 11
1063.564796732842
 21
3810.371381625014
 72
     1
 10
1063.564796732842
 20
3810.371381625014
 11
1058.564796732841
 21
3808.704714958347
 72
     1
 10
1058.564796732841
 20
3808.704714958348
 11
1035.231463399507
 21
3808.704714958348
 72
     1
 10
1035.231463399507
 20
3808.704714958348
 11
854.891288561274
 21
3808.704714958348
 72
     1
 10
854.8912885612738
 20
3808.704714958348
 11
836.5579552279406
 21
3808.704714958348
 72
     1
 10
836.5579552279408
 20
3808.704714958348
 11
826.8981300661746
 21
3808.704714958348
 72
     1
 10
826.8981300661744
 20
3808.704714958348
 11
826.8981300661744
 21
3800.371381625014
 72
     1
 10
826.8981300661744
 20
3800.371381625014
 11
836.5579552279404
 21
3800.371381625014
 72
     1
 10
836.5579552279404
 20
3800.371381625014
 11
854.8912885612732
 21
3800.371381625014
 72
     1
 10
854.8912885612732
 20
3800.371381625014
 11
1035.231463399507
 21
3800.371381625014
 72
     1
 10
1035.231463399507
 20
3800.371381625014
 11
1058.564796732841
 21
3800.371381625014
 72
     1
 10
1058.564796732841
 20
3800.371381625014
 11
1063.564796732842
 21
3798.704714958347
 72
     1
 10
1063.564796732842
 20
3798.704714958347
 11
1063.564796732842
 21
3797.871381625014
 72
     1
 10
1063.564796732841
 20
3797.871381625014
 11
1063.564796732842
 21
3796.204714958348
 72
     1
 10
1063.564796732842
 20
3796.204714958348
 11
1063.564796732842
 21
3795.788048291681
 72
     1
 10
1063.564796732842
 20
3795.788048291681
 11
1065.231463399508
 21
3795.788048291681
 72
     1
 10
1065.231463399508
 20
3795.788048291681
 11
1068.564796732842
 21
3793.28804829168
 72
     1
 10
1068.564796732842
 20
3793.28804829168
 11
1070.231463399508
 21
3793.28804829168
 72
     1
 10
1070.231463399508
 20
3793.28804829168
 11
1070.231463399508
 21
3797.870793693912
 72
     1
 10
1070.231463399508
 20
3797.870793693912
 11
1065.231463399508
 21
3797.870793693912
 72
     1
 10
1065.231463399508
 20
3797.870793693912
 11
1065.231463399508
 21
3811.205302889448
 72
     1
 10
1065.231463399508
 20
3811.205302889448
 11
1070.231463399508
 21
3811.205302889448
 72
     1
 10
1070.231463399508
 20
3811.205302889448
 11
1070.231463399508
 21
3815.78804829168
 97
        0
 75
     0
 76
     1
 52
90.0
 41
423.3333333333333
 77
     0
 78
     1
 53
135.0
 43
0.0
 44
0.0
 45
-37.41773383778815
 46
-37.41773383778814
 79
     0
 98
        1
 10
1704.398130066174
 20
3833.605189958831
  0
HATCH
  5
544
330
6C
100
AcDbEntity
  8
Kreskowanie (ISO)
100
AcDbHatch
 10
0.0
 20
0.0
 30
0.0
210
0.0
220
0.0
230
1.0
  2
ANSI31
 70
     0
 71
     0
 91
        2
 92
        1
 93
       15
 72
     3
 10
833.2246218946073
 20
3798.704714958347
 11
-1.666666666666749
 21
0.0000000000000225
 40
1.0
 50
0.0000000000000085
 51
53.13010235415727
 73
     1
 72
     1
 10
832.2246218946073
 20
3797.371381625015
 11
834.2042819824632
 21
3795.886636559123
 72
     3
 10
835.2042819824632
 20
3797.219969892456
 11
-0.9999999999999214
 21
-1.333333333333415
 40
1.0
 50
0.0000000000003562
 51
54.52002186576272
 73
     1
 72
     1
 10
835.709621411258
 20
3795.631760259101
 11
843.5647967328414
 21
3798.131134225059
 72
     3
 10
844.5754755904314
 20
3794.954714958347
 11
-1.010678857589827
 21
3.17641926671073
 40
1.0
 50
0.0000000000029516
 51
17.65012421993296
 73
     0
 72
     1
 10
844.5754755904314
 20
3798.288048291681
 11
859.8912885612735
 21
3798.288048291681
 72
     1
 10
859.8912885612735
 20
3798.288048291681
 11
859.8912885612735
 21
3799.53804829168
 72
     1
 10
859.8912885612735
 20
3799.53804829168
 11
854.8912885612732
 21
3799.53804829168
 72
     1
 10
854.8912885612732
 20
3799.53804829168
 11
854.8912885612738
 21
3800.371381625014
 72
     1
 10
854.8912885612738
 20
3800.371381625014
 11
854.8912885612732
 21
3801.093048291681
 72
     1
 10
854.8912885612732
 20
3801.093048291681
 11
836.5579552279404
 21
3801.093048291681
 72
     1
 10
836.5579552279404
 20
3801.093048291681
 11
836.5579552279404
 21
3800.371381625014
 72
     1
 10
836.5579552279404
 20
3800.371381625014
 11
836.5579552279404
 21
3799.538048291681
 72
     1
 10
836.5579552279404
 20
3799.53804829168
 11
831.5579552279405
 21
3799.53804829168
 72
     1
 10
831.5579552279405
 20
3799.53804829168
 11
831.5579552279405
 21
3798.704714958347
 97
        0
 92
        1
 93
       16
 72
     3
 10
833.2246218946071
 20
3810.371381625014
 11
-0.9999999999999475
 21
1.333333333333319
 40
1.0
 50
0.0
 51
53.13010235415969
 73
     1
 72
     1
 10
831.5579552279405
 20
3810.371381625014
 11
831.5579552279404
 21
3809.538048291681
 72
     1
 10
831.5579552279404
 20
3809.538048291681
 11
836.5579552279406
 21
3809.538048291681
 72
     1
 10
836.5579552279404
 20
3809.538048291681
 11
836.5579552279404
 21
3808.704714958348
 72
     1
 10
836.5579552279404
 20
3808.704714958348
 11
836.5579552279404
 21
3807.983048291681
 72
     1
 10
836.5579552279404
 20
3807.98304829168
 11
854.8912885612738
 21
3807.98304829168
 72
     1
 10
854.8912885612738
 20
3807.98304829168
 11
854.8912885612738
 21
3808.704714958347
 72
     1
 10
854.8912885612738
 20
3808.704714958348
 11
854.8912885612738
 21
3809.538048291681
 72
     1
 10
854.8912885612738
 20
3809.538048291681
 11
856.9746218946068
 21
3809.538048291681
 72
     1
 10
856.9746218946068
 20
3809.538048291681
 11
856.9746218946072
 21
3812.328439315306
 72
     1
 10
856.9746218946072
 20
3812.328439315306
 11
854.2019180520828
 21
3810.78804829168
 72
     1
 10
854.2019180520828
 20
3810.78804829168
 11
844.5754755904314
 21
3810.78804829168
 72
     3
 10
844.5754755904314
 20
3814.121381625014
 11
-0.0000000000000338
 21
-3.33333333333324
 40
1.0
 50
-0.0000000000005598
 51
17.65012421992909
 73
     0
 72
     1
 10
843.5647967328415
 20
3810.944962358304
 11
835.7096214112582
 21
3813.444336324262
 72
     3
 10
835.2042819824632
 20
3811.856126690906
 11
0.5053394287948584
 21
1.588209633355488
 40
1.0
 50
0.0000000000012213
 51
54.52002186577257
 73
     1
 72
     1
 10
834.2042819824632
 20
3813.189460024239
 11
832.2246218946073
 21
3811.704714958347
 97
        0
 75
     0
 76
     1
 52
15.0
 41
423.3333333333333
 77
     0
 78
     1
 53
60.0
 43
0.0
 44
0.0
 45
-45.82717761692655
 46
26.45833333333334
 79
     0
 98
        1
 10
1704.398130066174
 20
3833.605189958831
  0
HATCH
  5
54B
330
6C
100
AcDbEntity
  8
Kreskowanie (ISO)
100
AcDbHatch
 10
0.0
 20
0.0
 30
0.0
210
0.0
220
0.0
230
1.0
  2
ANSI31
 70
     0
 71
     0
 91
        1
 92
        1
 93
        6
 72
     1
 10
2345.231463399508
 20
3797.871381625013
 11
2345.231463399508
 21
3796.204714958346
 72
     1
 10
2345.231463399508
 20
3796.204714958347
 11
2373.564796732842
 21
3796.204714958347
 72
     1
 10
2373.564796732842
 20
3796.204714958347
 11
2565.231463399507
 21
3796.204714958348
 72
     1
 10
2565.231463399507
 20
3796.204714958348
 11
2565.231463399507
 21
3797.871381625014
 72
     1
 10
2565.231463399507
 20
3797.871381625014
 11
2373.564796732842
 21
3797.871381625014
 72
     1
 10
2373.564796732842
 20
3797.871381625013
 11
2345.231463399508
 21
3797.871381625013
 97
        0
 75
     0
 76
     1
 52
75.0
 41
423.3333333333333
 77
     0
 78
     1
 53
120.0
 43
0.0
 44
0.0
 45
-45.82717761692655
 46
-26.45833333333334
 79
     0
 98
        1
 10
1704.398130066174
 20
3833.605189958831
  0
HATCH
  5
566
330
6C
100
AcDbEntity
  8
Kreskowanie (ISO)
100
AcDbHatch
 10
0.0
 20
0.0
 30
0.0
210
0.0
220
0.0
230
1.0
  2
ANSI31
 70
     0
 71
     0
 91
        1
 92
        1
 93
       26
 72
     1
 10
2340.231463399506
 20
3815.788048291679
 11
2338.564796732841
 21
3815.788048291679
 72
     1
 10
2338.564796732841
 20
3815.788048291679
 11
2338.564796732841
 21
3811.205302889447
 72
     1
 10
2338.564796732841
 20
3811.205302889447
 11
2343.56479673284
 21
3811.205302889447
 72
     1
 10
2343.56479673284
 20
3811.205302889447
 11
2343.56479673284
 21
3797.870793693912
 72
     1
 10
2343.56479673284
 20
3797.870793693912
 11
2338.564796732841
 21
3797.870793693912
 72
     1
 10
2338.564796732841
 20
3797.870793693912
 11
2338.564796732841
 21
3793.288048291679
 72
     1
 10
2338.564796732841
 20
3793.288048291679
 11
2340.231463399507
 21
3793.288048291679
 72
     1
 10
2340.231463399506
 20
3793.288048291679
 11
2343.56479673284
 21
3795.788048291679
 72
     1
 10
2343.56479673284
 20
3795.788048291679
 11
2345.231463399507
 21
3795.788048291679
 72
     1
 10
2345.231463399507
 20
3795.788048291679
 11
2345.231463399507
 21
3796.204714958347
 72
     1
 10
2345.231463399507
 20
3796.204714958347
 11
2345.231463399507
 21
3797.871381625014
 72
     1
 10
2345.231463399507
 20
3797.871381625013
 11
2345.231463399507
 21
3798.704714958346
 72
     1
 10
2345.231463399507
 20
3798.704714958347
 11
2350.231463399507
 21
3800.371381625013
 72
     1
 10
2350.231463399507
 20
3800.371381625013
 11
2373.564796732842
 21
3800.371381625013
 72
     1
 10
2373.564796732842
 20
3800.371381625013
 11
2553.904971571075
 21
3800.371381625013
 72
     1
 10
2553.904971571075
 20
3800.371381625013
 11
2572.238304904408
 21
3800.371381625013
 72
     1
 10
2572.238304904408
 20
3800.371381625013
 11
2581.898130066174
 21
3800.371381625013
 72
     1
 10
2581.898130066174
 20
3800.371381625013
 11
2581.898130066174
 21
3808.704714958346
 72
     1
 10
2581.898130066174
 20
3808.704714958346
 11
2572.238304904408
 21
3808.704714958346
 72
     1
 10
2572.238304904408
 20
3808.704714958346
 11
2553.904971571075
 21
3808.704714958346
 72
     1
 10
2553.904971571075
 20
3808.704714958346
 11
2373.564796732842
 21
3808.704714958346
 72
     1
 10
2373.564796732842
 20
3808.704714958346
 11
2350.231463399507
 21
3808.704714958346
 72
     1
 10
2350.231463399507
 20
3808.704714958346
 11
2345.231463399507
 21
3810.371381625013
 72
     1
 10
2345.231463399507
 20
3810.371381625013
 11
2345.231463399507
 21
3813.28804829168
 72
     1
 10
2345.231463399507
 20
3813.28804829168
 11
2343.56479673284
 21
3813.28804829168
 72
     1
 10
2343.56479673284
 20
3813.28804829168
 11
2340.231463399506
 21
3815.788048291679
 97
        0
 75
     0
 76
     1
 52
-15.0
 41
423.3333333333333
 77
     0
 78
     1
 53
30.0
 43
0.0
 44
0.0
 45
-26.45833333333334
 46
45.82717761692655
 79
     0
 98
        1
 10
1704.398130066174
 20
3833.605189958831
  0
HATCH
  5
586
330
6C
100
AcDbEntity
  8
Kreskowanie (ISO)
100
AcDbHatch
 10
0.0
 20
0.0
 30
0.0
210
0.0
220
0.0
230
1.0
  2
ANSI31
 70
     0
 71
     0
 91
        2
 92
        1
 93
       16
 72
     3
 10
2575.571638237742
 20
3810.371381625014
 11
1.666666666666631
 21
-0.0000000000000723
 40
1.0
 50
0.0
 51
53.13010235416092
 73
     1
 72
     1
 10
2576.571638237741
 20
3811.704714958347
 11
2574.591978149885
 21
3813.18946002424
 72
     3
 10
2573.591978149886
 20
3811.856126690905
 11
0.9999999999999753
 21
1.333333333333417
 40
1.0
 50
0.0000000000016618
 51
54.52002186576808
 73
     1
 72
     1
 10
2573.086638721091
 20
3813.444336324261
 11
2565.231463399507
 21
3810.944962358303
 72
     3
 10
2564.220784541918
 20
3814.121381625014
 11
1.010678857589749
 21
-3.176419266710796
 40
1.0
 50
-0.0000000000004071
 51
17.6501242199293
 73
     0
 72
     1
 10
2564.220784541918
 20
3810.78804829168
 11
2554.594342080266
 21
3810.78804829168
 72
     1
 10
2554.594342080265
 20
3810.78804829168
 11
2551.821638237742
 21
3812.328439315304
 72
     1
 10
2551.821638237742
 20
3812.328439315305
 11
2551.821638237742
 21
3809.53804829168
 72
     1
 10
2551.821638237742
 20
3809.53804829168
 11
2553.904971571075
 21
3809.53804829168
 72
     1
 10
2553.904971571075
 20
3809.53804829168
 11
2553.904971571075
 21
3808.704714958346
 72
     1
 10
2553.904971571075
 20
3808.704714958346
 11
2553.904971571075
 21
3807.98304829168
 72
     1
 10
2553.904971571075
 20
3807.98304829168
 11
2572.238304904408
 21
3807.98304829168
 72
     1
 10
2572.238304904408
 20
3807.98304829168
 11
2572.238304904408
 21
3808.704714958346
 72
     1
 10
2572.238304904408
 20
3808.704714958346
 11
2572.238304904408
 21
3809.53804829168
 72
     1
 10
2572.238304904408
 20
3809.53804829168
 11
2577.238304904408
 21
3809.53804829168
 72
     1
 10
2577.238304904408
 20
3809.53804829168
 11
2577.238304904408
 21
3810.371381625014
 97
        0
 92
        1
 93
       15
 72
     3
 10
2575.571638237742
 20
3798.704714958347
 11
1.000000000000012
 21
-1.333333333333238
 40
1.0
 50
0.0000000000010178
 51
53.13010235415726
 73
     1
 72
     1
 10
2577.238304904408
 20
3798.704714958347
 11
2577.238304904408
 21
3799.53804829168
 72
     1
 10
2577.238304904408
 20
3799.53804829168
 11
2572.238304904408
 21
3799.53804829168
 72
     1
 10
2572.238304904408
 20
3799.53804829168
 11
2572.238304904408
 21
3800.371381625013
 72
     1
 10
2572.238304904408
 20
3800.371381625013
 11
2572.238304904408
 21
3801.093048291681
 72
     1
 10
2572.238304904408
 20
3801.093048291681
 11
2553.904971571075
 21
3801.093048291681
 72
     1
 10
2553.904971571075
 20
3801.093048291681
 11
2553.904971571075
 21
3800.371381625014
 72
     1
 10
2553.904971571075
 20
3800.371381625013
 11
2553.904971571075
 21
3799.53804829168
 72
     1
 10
2553.904971571075
 20
3799.53804829168
 11
2548.904971571075
 21
3799.53804829168
 72
     1
 10
2548.904971571075
 20
3799.53804829168
 11
2548.904971571075
 21
3798.288048291681
 72
     1
 10
2548.904971571075
 20
3798.288048291681
 11
2564.220784541918
 21
3798.288048291681
 72
     3
 10
2564.220784541918
 20
3794.954714958347
 11
0.0000000000000808
 21
3.333333333333209
 40
1.0
 50
-0.000000000001374
 51
17.6501242199263
 73
     0
 72
     1
 10
2565.231463399507
 20
3798.131134225058
 11
2573.086638721091
 21
3795.631760259099
 72
     3
 10
2573.591978149886
 20
3797.219969892455
 11
-0.5053394287948822
 21
-1.588209633355489
 40
1.0
 50
0.0
 51
54.52002186577317
 73
     1
 72
     1
 10
2574.591978149886
 20
3795.886636559122
 11
2576.571638237742
 21
3797.371381625013
 97
        0
 75
     0
 76
     1
 52
105.0
 41
423.3333333333333
 77
     0
 78
     1
 53
150.0
 43
0.0
 44
0.0
 45
-26.45833333333334
 46
-45.82717761692655
 79
     0
 98
        1
 10
1704.398130066174
 20
3833.605189958831
  0
MTEXT
  5
587
102
{ACAD_REACTORS
330
588
102
}
330
6C
100
AcDbEntity
  8
Symbol (ISO)
100
AcDbMText
 10
1168.597606501329
 20
4504.806393742752
 30
0.0
 40
33.33333383003871
 41
365.3970956802369
 71
     1
 72
     1
  1
{okucie / hardware}
  7
wibo Tekst notatki (ISO)
 73
     1
 44
1.0
1001
ACAD
1000
MTEXTBEGIN
1070
    73
1070
     1
1070
    44
1040
1.0
1070
    74
1070
     0
1000
MTEXTEND
  0
LEADER
  5
588
330
6C
100
AcDbEntity
  8
Symbol (ISO)
100
AcDbLeader
  3
wibo Domyślne - Metoda 1b (ISO)$7
 73
     0
 74
     0
 75
     1
 40
42.08641181704518
 41
362.9953019220147
 76
     3
 10
990.8481541521243
 20
3980.271856625498
 30
0.0
 10
1114.230939834662
 20
4488.139726827733
 30
0.0
 10
1155.897606501328
 20
4488.139726827733
 30
0.0
340
587
213
0.0
223
-16.66666691501935
233
0.0
1001
ACAD
1000
DSTYLE
1002
{
1070
    77
1070
     0
1002
}
  0
MTEXT
  5
589
102
{ACAD_XDICTIONARY
360
5E3
102
}
102
{ACAD_REACTORS
330
58A
102
}
330
6C
100
AcDbEntity
  8
Symbol (ISO)
100
AcDbMText
 10
1144.712322516576
 20
4595.106533924587
 30
0.0
 40
33.33333383003871
 41
289.3571058909099
 71
     1
 72
     1
  1
{\U+015Bciana / a wall}
  7
wibo Tekst notatki (ISO)
 73
     1
 44
1.0
1001
ACAD
1000
MTEXTBEGIN
1070
    73
1070
     1
1070
    44
1040
1.0
1070
    74
1070
     0
1000
MTEXTEND
  0
LEADER
  5
58A
330
6C
100
AcDbEntity
  8
Symbol (ISO)
100
AcDbLeader
  3
wibo Domyślne - Metoda 1b (ISO)$7
 73
     0
 74
     0
 75
     1
 40
44.77277852877147
 41
284.7772578322509
 76
     3
 10
745.1839382014393
 20
3958.605189958831
 30
0.0
 10
1090.34565584991
 20
4578.439867009568
 30
0.0
 10
1132.012322516576
 20
4578.439867009568
 30
0.0
340
589
213
0.0
223
-16.66666691501935
233
0.0
1001
ACAD
1000
DSTYLE
1002
{
1070
    77
1070
     0
1002
}
  0
MTEXT
  5
58B
102
{ACAD_XDICTIONARY
360
5E5
102
}
102
{ACAD_REACTORS
330
58C
102
}
330
6C
100
AcDbEntity
  8
Symbol (ISO)
100
AcDbMText
 10
1277.747908730728
 20
4426.801378572853
 30
0.0
 40
33.33333383003871
 41
252.5391777356466
 71
     1
 72
     1
  1
{\U+0142acznik / link}
  7
wibo Tekst notatki (ISO)
 73
     1
 44
1.0
1001
ACAD
1000
MTEXTBEGIN
1070
    73
1070
     1
1070
    44
1040
1.0
1070
    74
1070
     0
1000
MTEXTEND
  0
LEADER
  5
58C
330
6C
100
AcDbEntity
  8
Symbol (ISO)
100
AcDbLeader
  3
wibo Domyślne - Metoda 1b (ISO)$7
 73
     0
 74
     0
 75
     1
 40
42.08641181704518
 41
252.9885850768232
 76
     3
 10
1060.231463399513
 20
3919.111780714881
 30
0.0
 10
1223.381242064061
 20
4410.134711657834
 30
0.0
 10
1265.047908730728
 20
4410.134711657834
 30
0.0
340
58B
213
0.0
223
-16.66666691501935
233
0.0
1001
ACAD
1000
DSTYLE
1002
{
1070
    77
1070
     0
1002
}
  0
MTEXT
  5
58D
102
{ACAD_XDICTIONARY
360
5E7
102
}
102
{ACAD_REACTORS
330
58E
102
}
330
6C
100
AcDbEntity
  8
Symbol (ISO)
100
AcDbMText
 10
1824.734307915573
 20
3274.96076283673
 30
0.0
 40
33.33333383003871
 41
617.3419952392579
 71
     1
 72
     1
  1
{skrzyd\U+0142o drzwiowe / door wing}
  7
wibo Tekst notatki (ISO)
 73
     1
 44
1.0
1001
ACAD
1000
MTEXTBEGIN
1070
    73
1070
     1
1070
    44
1040
1.0
1070
    74
1070
     0
1000
MTEXTEND
  0
LEADER
  5
58E
330
6C
100
AcDbEntity
  8
Symbol (ISO)
100
AcDbLeader
  3
wibo Domyślne - Metoda 1b (ISO)$7
 73
     0
 74
     0
 75
     1
 40
44.30266435421937
 41
612.9841108374103
 76
     3
 10
1691.898130066168
 20
3702.538048291682
 30
0.0
 10
1770.367641248906
 20
3258.294095921711
 30
0.0
 10
1812.034307915573
 20
3258.294095921711
 30
0.0
340
58D
213
0.0
223
-16.66666691501935
233
0.0
1001
ACAD
1000
DSTYLE
1002
{
1070
    77
1070
     0
1002
}
  0
MTEXT
  5
58F
102
{ACAD_REACTORS
330
590
102
}
330
6C
100
AcDbEntity
  8
Symbol (ISO)
100
AcDbMText
 10
1287.700905604774
 20
3301.621995076224
 30
0.0
 40
33.33333383003871
 41
290.6537055969239
 71
     1
 72
     1
  1
{zawias / hinge}
  7
wibo Tekst notatki (ISO)
 73
     1
 44
1.0
1001
ACAD
1000
MTEXTBEGIN
1070
    73
1070
     1
1070
    44
1040
1.0
1070
    74
1070
     0
1000
MTEXTEND
  0
LEADER
  5
590
330
6C
100
AcDbEntity
  8
Symbol (ISO)
100
AcDbLeader
  3
wibo Domyślne - Metoda 1b (ISO)$7
 73
     0
 74
     0
 75
     1
 40
44.30266435421937
 41
288.4262392823458
 76
     3
 10
1148.56479673284
 20
3692.871381625014
 30
0.0
 10
1233.334238938107
 20
3284.955328161204
 30
0.0
 10
1275.000905604774
 20
3284.955328161204
 30
0.0
340
58F
213
0.0
223
-16.66666691501935
233
0.0
1001
ACAD
1000
DSTYLE
1002
{
1070
    77
1070
     0
1002
}
  0
MTEXT
  5
591
102
{ACAD_XDICTIONARY
360
5E9
102
}
102
{ACAD_REACTORS
330
592
102
}
330
6C
100
AcDbEntity
  8
Symbol (ISO)
100
AcDbMText
 10
2192.880784562016
 20
4181.358294192928
 30
0.0
 40
33.33333383003871
 41
751.5397071838379
 71
     3
 72
     1
  1
{kotwa monta\U+017Cowa / assembly anchor}
  7
wibo Tekst notatki (ISO)
 73
     1
 44
1.0
1001
ACAD
1000
MTEXTBEGIN
1070
    73
1070
     1
1070
    44
1040
1.0
1070
    74
1070
     0
1000
MTEXTEND
  0
LEADER
  5
592
330
6C
100
AcDbEntity
  8
Symbol (ISO)
100
AcDbLeader
  3
wibo Domyślne - Metoda 1b (ISO)$7
 73
     0
 75
     1
 40
44.05641407231112
 41
748.4889250547371
 76
     3
 10
2440.07659088446
 20
3808.704714958346
 30
0.0
 10
2247.247451228682
 20
4164.691627277909
 30
0.0
 10
2205.580784562016
 20
4164.691627277909
 30
0.0
340
591
213
0.0
223
-16.66666691501935
233
0.0
1001
ACAD
1000
DSTYLE
1002
{
1070
    77
1070
     0
1002
}
  0
MTEXT
  5
593
102
{ACAD_REACTORS
330
594
102
}
330
6C
100
AcDbEntity
  8
Symbol (ISO)
100
AcDbMText
 10
1396.277468874141
 20
4330.852561780606
 30
0.0
 40
33.33333383003871
 41
414.3706162770589
 71
     1
 72
     1
  1
{futryna / door frame}
  7
wibo Tekst notatki (ISO)
 73
     1
 44
1.0
1001
ACAD
1000
MTEXTBEGIN
1070
    73
1070
     1
1070
    44
1040
1.0
1070
    74
1070
     0
1000
MTEXTEND
  0
LEADER
  5
594
330
6C
100
AcDbEntity
  8
Symbol (ISO)
100
AcDbLeader
  3
wibo Domyślne - Metoda 1b (ISO)$7
 73
     0
 74
     0
 75
     1
 40
44.28027796495499
 41
412.6035405318935
 76
     3
 10
1090.231463399508
 20
3856.267447578931
 30
0.0
 10
1341.910802207475
 20
4314.185894865587
 30
0.0
 10
1383.577468874141
 20
4314.185894865587
 30
0.0
340
593
213
0.0
223
-16.66666691501935
233
0.0
1001
ACAD
1000
DSTYLE
1002
{
1070
    77
1070
     0
1002
}
  0
ENDSEC
  0
SECTION
  2
OBJECTS
  0
DICTIONARY
  5
C
330
0
100
AcDbDictionary
281
     1
  3
ACAD_COLOR
350
63
  3
ACAD_GROUP
350
D
  3
ACAD_LAYOUT
350
62
  3
ACAD_MATERIAL
350
10
  3
ACAD_MLEADERSTYLE
350
66
  3
ACAD_MLINESTYLE
350
5F
  3
ACAD_PLOTSETTINGS
350
61
  3
ACAD_PLOTSTYLENAME
350
E
  3
ACAD_SCALELIST
350
42
  3
ACAD_TABLESTYLE
350
64
  3
ACAD_VISUALSTYLE
350
29
  3
ACDB_RECOMPOSE_DATA
350
5A4
  3
AcDbVariableDictionary
350
595
  3
DWGPROPS
350
5A5
  0
DICTIONARY
  5
5E1
330
DA
100
AcDbDictionary
280
     1
281
     1
  3
ACAD_MTEXT_RT
360
5E2
  0
DICTIONARY
  5
5E3
330
589
100
AcDbDictionary
280
     1
281
     1
  3
ACAD_MTEXT_RT
360
5E4
  0
DICTIONARY
  5
5E5
330
58B
100
AcDbDictionary
280
     1
281
     1
  3
ACAD_MTEXT_RT
360
5E6
  0
DICTIONARY
  5
5E7
330
58D
100
AcDbDictionary
280
     1
281
     1
  3
ACAD_MTEXT_RT
360
5E8
  0
DICTIONARY
  5
5E9
330
591
100
AcDbDictionary
280
     1
281
     1
  3
ACAD_MTEXT_RT
360
5EA
  0
DICTIONARY
  5
63
102
{ACAD_REACTORS
330
C
102
}
330
C
100
AcDbDictionary
281
     1
  0
DICTIONARY
  5
D
102
{ACAD_REACTORS
330
C
102
}
330
C
100
AcDbDictionary
281
     1
  0
DICTIONARY
  5
62
102
{ACAD_REACTORS
330
C
102
}
330
C
100
AcDbDictionary
281
     1
  3
Layout1
350
6B
  3
Layout2
350
73
  3
Model
350
6F
  0
DICTIONARY
  5
10
102
{ACAD_REACTORS
330
C
102
}
330
C
100
AcDbDictionary
281
     1
  3
ByBlock
350
19
  3
ByLayer
350
11
  3
Global
350
21
  0
DICTIONARY
  5
66
102
{ACAD_REACTORS
330
C
102
}
330
C
100
AcDbDictionary
281
     1
  3
Standard
350
67
  0
DICTIONARY
  5
5F
102
{ACAD_REACTORS
330
C
102
}
330
C
100
AcDbDictionary
281
     1
  3
Standard
350
60
  0
DICTIONARY
  5
61
102
{ACAD_REACTORS
330
C
102
}
330
C
100
AcDbDictionary
281
     1
  0
ACDBDICTIONARYWDFLT
  5
E
102
{ACAD_REACTORS
330
C
102
}
330
C
100
AcDbDictionary
281
     1
  3
Normal
350
F
100
AcDbDictionaryWithDefault
340
F
  0
DICTIONARY
  5
42
102
{ACAD_REACTORS
330
C
102
}
330
C
100
AcDbDictionary
281
     1
  3
A0
350
43
  3
A1
350
44
  3
A2
350
45
  3
A3
350
46
  3
A4
350
47
  3
A5
350
48
  3
A6
350
49
  3
A7
350
4A
  3
A8
350
4B
  3
A9
350
4C
  3
B0
350
4D
  3
B1
350
4E
  3
B2
350
4F
  3
B3
350
50
  3
B4
350
51
  3
B5
350
52
  3
B6
350
53
  0
DICTIONARY
  5
64
102
{ACAD_REACTORS
330
C
102
}
330
C
100
AcDbDictionary
281
     1
  3
Standard
350
65
  0
DICTIONARY
  5
29
102
{ACAD_REACTORS
330
C
102
}
330
C
100
AcDbDictionary
281
     1
  3
2dWireframe
350
2F
  3
Basic
350
2E
  3
Brighten
350
35
  3
ColorChange
350
39
  3
Conceptual
350
32
  3
Dim
350
34
  3
EdgeColorOff
350
41
  3
Facepattern
350
38
  3
Flat
350
2A
  3
FlatWithEdges
350
2B
  3
Gouraud
350
2C
  3
GouraudWithEdges
350
2D
  3
Hidden
350
31
  3
JitterOff
350
3F
  3
Linepattern
350
37
  3
OverhangOff
350
40
  3
Realistic
350
33
  3
Shaded
350
3E
  3
Shaded with edges
350
3D
  3
Shades of Gray
350
3A
  3
Sketchy
350
3B
  3
Thicken
350
36
  3
Wireframe
350
30
  3
X-Ray
350
3C
  0
XRECORD
  5
5A4
102
{ACAD_REACTORS
330
C
102
}
330
C
100
AcDbXrecord
280
     1
 90
        1
330
65
  0
DICTIONARY
  5
595
102
{ACAD_REACTORS
330
C
102
}
330
C
100
AcDbDictionary
281
     1
  3
CANNOSCALE
350
599
  3
CMLEADERSTYLE
350
597
  3
CTABLESTYLE
350
596
  3
DIMASSOC
350
5A0
  3
HIDETEXT
350
59F
  3
INDEXCTL
350
59E
  3
LAYEREVAL
350
59B
  3
LAYERNOTIFY
350
59C
  3
LIGHTINGUNITS
350
59A
  3
MSLTSCALE
350
598
  3
SORTENTS
350
59D
  3
XCLIPFRAME
350
5A1
  0
XRECORD
  5
5A5
102
{ACAD_REACTORS
330
C
102
}
330
C
100
AcDbXrecord
280
     1
  1
DWGPROPS COOKIE
  2

  3

  4
A.Godlewski
  6

  7

  8

  9

300
Menadżer=
301
Firma=
302
Kategoria=
303
Numer części=Montaż WK1
304
Opis=
305
Projekt=
306
Projektant=A.Godlewski
307
Inżynier=A. Godlewski
308
Zatwierdził=A. Godlewski
309
Centrum kosztów=
 40
0.0001189583333333
 41
2457148.258741366
 42
2457148.258741366
  1

 90
       21
300
Dostawca=
300
Stan użytkownika=
300
Stan projektu=PracaWToku
300
Sprawdził=
300
Zatwierdził konstrukcję=
300
Zatwierdził do produkcji=
300
zastąpiony przez rys. nr=
300
zastępuje rys. nr=
300
inwestor=
300
nr zlec=//
300
podzialka=0,06 : 1
  0
XRECORD
  5
5E2
102
{ACAD_REACTORS
330
5E1
102
}
330
5E1
100
AcDbXrecord
280
     1
 40
45613.0
  1
 Ilość kompletów
  0
XRECORD
  5
5E4
102
{ACAD_REACTORS
330
5E3
102
}
330
5E3
100
AcDbXrecord
280
     1
 40
23366.0
  1
{ściana / a wall}
  0
XRECORD
  5
5E6
102
{ACAD_REACTORS
330
5E5
102
}
330
5E5
100
AcDbXrecord
280
     1
 40
22332.0
  1
{łacznik / link}
  0
XRECORD
  5
5E8
102
{ACAD_REACTORS
330
5E7
102
}
330
5E7
100
AcDbXrecord
280
     1
 40
64497.0
  1
{skrzydło drzwiowe / door wing}
  0
XRECORD
  5
5EA
102
{ACAD_REACTORS
330
5E9
102
}
330
5E9
100
AcDbXrecord
280
     1
 40
79963.0
  1
{kotwa montażowa / assembly anchor}
  0
LAYOUT
  5
6B
102
{ACAD_XDICTIONARY
360
5DB
102
}
102
{ACAD_REACTORS
330
62
102
}
330
62
100
AcDbPlotSettings
  1

  2

  4

  6

 40
0.0
 41
0.0
 42
0.0
 43
0.0
 44
0.0
 45
0.0
 46
0.0
 47
0.0
 48
0.0
 49
0.0
140
0.0
141
0.0
142
1.0
143
1.0
 70
   688
 72
     0
 73
     0
 74
     5
  7

 75
    16
147
1.0
148
0.0
149
0.0
100
AcDbLayout
  1
Layout1
 70
     1
 71
     1
 10
0.0
 20
0.0
 11
12.0
 21
9.0
 12
0.0
 22
0.0
 32
0.0
 14
0.0
 24
0.0
 34
0.0
 15
0.0
 25
0.0
 35
0.0
146
0.0
 13
0.0
 23
0.0
 33
0.0
 16
1.0
 26
0.0
 36
0.0
 17
0.0
 27
1.0
 37
0.0
 76
     0
330
68
  0
LAYOUT
  5
73
102
{ACAD_XDICTIONARY
360
5DF
102
}
102
{ACAD_REACTORS
330
62
102
}
330
62
100
AcDbPlotSettings
  1

  2

  4

  6

 40
0.0
 41
0.0
 42
0.0
 43
0.0
 44
0.0
 45
0.0
 46
0.0
 47
0.0
 48
0.0
 49
0.0
140
0.0
141
0.0
142
1.0
143
1.0
 70
   688
 72
     0
 73
     0
 74
     5
  7

 75
    16
147
1.0
148
0.0
149
0.0
100
AcDbLayout
  1
Layout2
 70
     1
 71
     2
 10
0.0
 20
0.0
 11
12.0
 21
9.0
 12
0.0
 22
0.0
 32
0.0
 14
0.0
 24
0.0
 34
0.0
 15
0.0
 25
0.0
 35
0.0
146
0.0
 13
0.0
 23
0.0
 33
0.0
 16
1.0
 26
0.0
 36
0.0
 17
0.0
 27
1.0
 37
0.0
 76
     0
330
70
  0
LAYOUT
  5
6F
102
{ACAD_XDICTIONARY
360
5DD
102
}
102
{ACAD_REACTORS
330
62
102
}
330
62
100
AcDbPlotSettings
  1

  2

  4

  6

 40
0.0
 41
0.0
 42
0.0
 43
0.0
 44
0.0
 45
0.0
 46
0.0
 47
0.0
 48
0.0
 49
0.0
140
0.0
141
0.0
142
1.0
143
1.0
 70
  1712
 72
     0
 73
     0
 74
     0
  7

 75
     0
147
1.0
148
0.0
149
0.0
100
AcDbLayout
  1
Model
 70
     1
 71
     0
 10
0.0
 20
0.0
 11
12.0
 21
9.0
 12
0.0
 22
0.0
 32
0.0
 14
0.0
 24
0.0
 34
0.0
 15
0.0
 25
0.0
 35
0.0
146
0.0
 13
0.0
 23
0.0
 33
0.0
 16
1.0
 26
0.0
 36
0.0
 17
0.0
 27
1.0
 37
0.0
 76
     0
330
6C
  0
MATERIAL
  5
19
102
{ACAD_XDICTIONARY
360
1A
102
}
102
{ACAD_REACTORS
330
10
102
}
330
10
100
AcDbMaterial
  1
ByBlock
 72
     0
 43
0.0208333333333333
 43
0.0
 43
0.0
 43
0.0
 43
0.0
 43
0.0208333333333333
 43
0.0
 43
0.0
 43
0.0
 43
0.0
 43
1.0
 43
0.0
 43
0.0
 43
0.0
 43
0.0
 43
1.0
 77
     0
 47
0.0208333333333333
 47
0.0
 47
0.0
 47
0.0
 47
0.0
 47
0.0208333333333333
 47
0.0
 47
0.0
 47
0.0
 47
0.0
 47
1.0
 47
0.0
 47
0.0
 47
0.0
 47
0.0
 47
1.0
171
     0
 49
0.0208333333333333
 49
0.0
 49
0.0
 49
0.0
 49
0.0
 49
0.0208333333333333
 49
0.0
 49
0.0
 49
0.0
 49
0.0
 49
1.0
 49
0.0
 49
0.0
 49
0.0
 49
0.0
 49
1.0
175
     0
142
0.0208333333333333
142
0.0
142
0.0
142
0.0
142
0.0
142
0.0208333333333333
142
0.0
142
0.0
142
0.0
142
0.0
142
1.0
142
0.0
142
0.0
142
0.0
142
0.0
142
1.0
179
     0
144
0.0208333333333333
144
0.0
144
0.0
144
0.0
144
0.0
144
0.0208333333333333
144
0.0
144
0.0
144
0.0
144
0.0
144
1.0
144
0.0
144
0.0
144
0.0
144
0.0
144
1.0
147
0.0208333333333333
147
0.0
147
0.0
147
0.0
147
0.0
147
0.0208333333333333
147
0.0
147
0.0
147
0.0
147
0.0
147
1.0
147
0.0
147
0.0
147
0.0
147
0.0
147
1.0
  0
MATERIAL
  5
11
102
{ACAD_XDICTIONARY
360
12
102
}
102
{ACAD_REACTORS
330
10
102
}
330
10
100
AcDbMaterial
  1
ByLayer
 72
     0
 43
0.0208333333333333
 43
0.0
 43
0.0
 43
0.0
 43
0.0
 43
0.0208333333333333
 43
0.0
 43
0.0
 43
0.0
 43
0.0
 43
1.0
 43
0.0
 43
0.0
 43
0.0
 43
0.0
 43
1.0
 77
     0
 47
0.0208333333333333
 47
0.0
 47
0.0
 47
0.0
 47
0.0
 47
0.0208333333333333
 47
0.0
 47
0.0
 47
0.0
 47
0.0
 47
1.0
 47
0.0
 47
0.0
 47
0.0
 47
0.0
 47
1.0
171
     0
 49
0.0208333333333333
 49
0.0
 49
0.0
 49
0.0
 49
0.0
 49
0.0208333333333333
 49
0.0
 49
0.0
 49
0.0
 49
0.0
 49
1.0
 49
0.0
 49
0.0
 49
0.0
 49
0.0
 49
1.0
175
     0
142
0.0208333333333333
142
0.0
142
0.0
142
0.0
142
0.0
142
0.0208333333333333
142
0.0
142
0.0
142
0.0
142
0.0
142
1.0
142
0.0
142
0.0
142
0.0
142
0.0
142
1.0
179
     0
144
0.0208333333333333
144
0.0
144
0.0
144
0.0
144
0.0
144
0.0208333333333333
144
0.0
144
0.0
144
0.0
144
0.0
144
1.0
144
0.0
144
0.0
144
0.0
144
0.0
144
1.0
147
0.0208333333333333
147
0.0
147
0.0
147
0.0
147
0.0
147
0.0208333333333333
147
0.0
147
0.0
147
0.0
147
0.0
147
1.0
147
0.0
147
0.0
147
0.0
147
0.0
147
1.0
  0
MATERIAL
  5
21
102
{ACAD_XDICTIONARY
360
22
102
}
102
{ACAD_REACTORS
330
10
102
}
330
10
100
AcDbMaterial
  1
Global
 72
     0
 43
0.0208333333333333
 43
0.0
 43
0.0
 43
0.0
 43
0.0
 43
0.0208333333333333
 43
0.0
 43
0.0
 43
0.0
 43
0.0
 43
1.0
 43
0.0
 43
0.0
 43
0.0
 43
0.0
 43
1.0
 77
     0
 47
0.0208333333333333
 47
0.0
 47
0.0
 47
0.0
 47
0.0
 47
0.0208333333333333
 47
0.0
 47
0.0
 47
0.0
 47
0.0
 47
1.0
 47
0.0
 47
0.0
 47
0.0
 47
0.0
 47
1.0
171
     0
 49
0.0208333333333333
 49
0.0
 49
0.0
 49
0.0
 49
0.0
 49
0.0208333333333333
 49
0.0
 49
0.0
 49
0.0
 49
0.0
 49
1.0
 49
0.0
 49
0.0
 49
0.0
 49
0.0
 49
1.0
175
     0
142
0.0208333333333333
142
0.0
142
0.0
142
0.0
142
0.0
142
0.0208333333333333
142
0.0
142
0.0
142
0.0
142
0.0
142
1.0
142
0.0
142
0.0
142
0.0
142
0.0
142
1.0
179
     0
144
0.0208333333333333
144
0.0
144
0.0
144
0.0
144
0.0
144
0.0208333333333333
144
0.0
144
0.0
144
0.0
144
0.0
144
1.0
144
0.0
144
0.0
144
0.0
144
0.0
144
1.0
147
0.0208333333333333
147
0.0
147
0.0
147
0.0
147
0.0
147
0.0208333333333333
147
0.0
147
0.0
147
0.0
147
0.0
147
1.0
147
0.0
147
0.0
147
0.0
147
0.0
147
1.0
  0
MLEADERSTYLE
  5
67
102
{ACAD_REACTORS
330
66
102
}
330
66
100
AcDbMLeaderStyle
170
     2
171
     1
172
     0
 90
        2
 40
0.0
 41
0.0
173
     1
 91
-1056964608
340
5B
 92
       -2
290
     1
 42
0.09
291
     1
 43
0.36
  3
Standard
 44
0.18
300

342
55
174
     1
178
     6
175
     1
176
     0
 93
-1056964608
 45
0.18
292
     0
297
     0
 46
0.18
 94
-1056964608
 47
1.0
 49
1.0
140
1.0
293
     1
141
0.0
294
     1
177
     0
142
1.0
295
     0
296
     0
143
0.125
1001
ACAD_MLEADERVER
1070
     2
  0
MLINESTYLE
  5
60
102
{ACAD_REACTORS
330
5F
102
}
330
5F
100
AcDbMlineStyle
  2
STANDARD
 70
     0
  3

 62
   256
 51
90.0
 52
90.0
 71
     2
 49
0.5
 62
   256
  6
BYLAYER
 49
-0.5
 62
   256
  6
BYLAYER
  0
ACDBPLACEHOLDER
  5
F
102
{ACAD_REACTORS
330
E
102
}
330
E
  0
SCALE
  5
43
102
{ACAD_REACTORS
330
42
102
}
330
42
100
AcDbScale
 70
     0
300
1:1
140
1.0
141
1.0
290
     1
  0
SCALE
  5
44
102
{ACAD_REACTORS
330
42
102
}
330
42
100
AcDbScale
 70
     0
300
1/128" = 1'-0"
140
0.0078125
141
12.0
290
     0
  0
SCALE
  5
45
102
{ACAD_REACTORS
330
42
102
}
330
42
100
AcDbScale
 70
     0
300
1/64" = 1'-0"
140
0.015625
141
12.0
290
     0
  0
SCALE
  5
46
102
{ACAD_REACTORS
330
42
102
}
330
42
100
AcDbScale
 70
     0
300
1/32" = 1'-0"
140
0.03125
141
12.0
290
     0
  0
SCALE
  5
47
102
{ACAD_REACTORS
330
42
102
}
330
42
100
AcDbScale
 70
     0
300
1/16" = 1'-0"
140
0.0625
141
12.0
290
     0
  0
SCALE
  5
48
102
{ACAD_REACTORS
330
42
102
}
330
42
100
AcDbScale
 70
     0
300
3/32" = 1'-0"
140
0.09375
141
12.0
290
     0
  0
SCALE
  5
49
102
{ACAD_REACTORS
330
42
102
}
330
42
100
AcDbScale
 70
     0
300
1/8" = 1'-0"
140
0.125
141
12.0
290
     0
  0
SCALE
  5
4A
102
{ACAD_REACTORS
330
42
102
}
330
42
100
AcDbScale
 70
     0
300
3/16" = 1'-0"
140
0.1875
141
12.0
290
     0
  0
SCALE
  5
4B
102
{ACAD_REACTORS
330
42
102
}
330
42
100
AcDbScale
 70
     0
300
1/4" = 1'-0"
140
0.25
141
12.0
290
     0
  0
SCALE
  5
4C
102
{ACAD_REACTORS
330
42
102
}
330
42
100
AcDbScale
 70
     0
300
3/8" = 1'-0"
140
0.375
141
12.0
290
     0
  0
SCALE
  5
4D
102
{ACAD_REACTORS
330
42
102
}
330
42
100
AcDbScale
 70
     0
300
1/2" = 1'-0"
140
0.5
141
12.0
290
     0
  0
SCALE
  5
4E
102
{ACAD_REACTORS
330
42
102
}
330
42
100
AcDbScale
 70
     0
300
3/4" = 1'-0"
140
0.75
141
12.0
290
     0
  0
SCALE
  5
4F
102
{ACAD_REACTORS
330
42
102
}
330
42
100
AcDbScale
 70
     0
300
1" = 1'-0"
140
1.0
141
12.0
290
     0
  0
SCALE
  5
50
102
{ACAD_REACTORS
330
42
102
}
330
42
100
AcDbScale
 70
     0
300
1-1/2" = 1'-0"
140
1.5
141
12.0
290
     0
  0
SCALE
  5
51
102
{ACAD_REACTORS
330
42
102
}
330
42
100
AcDbScale
 70
     0
300
3" = 1'-0"
140
3.0
141
12.0
290
     0
  0
SCALE
  5
52
102
{ACAD_REACTORS
330
42
102
}
330
42
100
AcDbScale
 70
     0
300
6" = 1'-0"
140
6.0
141
12.0
290
     0
  0
SCALE
  5
53
102
{ACAD_REACTORS
330
42
102
}
330
42
100
AcDbScale
 70
     0
300
1'-0" = 1'-0"
140
12.0
141
12.0
290
     0
  0
TABLESTYLE
  5
65
102
{ACAD_XDICTIONARY
360
5A2
102
}
102
{ACAD_REACTORS
330
64
102
}
330
64
100
AcDbTableStyle
  3
Standard
 70
     0
 71
     0
 40
0.06
 41
0.06
280
     0
281
     0
  7
Standard
140
0.18
170
     2
 62
     0
 63
     7
283
     0
274
    -2
284
     1
 64
     0
275
    -2
285
     1
 65
     0
276
    -2
286
     1
 66
     0
277
    -2
287
     1
 67
     0
278
    -2
288
     1
 68
     0
279
    -2
289
     1
 69
     0
  7
Standard
140
0.25
170
     5
 62
     0
 63
     7
283
     0
274
    -2
284
     1
 64
     0
275
    -2
285
     1
 65
     0
276
    -2
286
     1
 66
     0
277
    -2
287
     1
 67
     0
278
    -2
288
     1
 68
     0
279
    -2
289
     1
 69
     0
  7
Standard
140
0.18
170
     5
 62
     0
 63
     7
283
     0
274
    -2
284
     1
 64
     0
275
    -2
285
     1
 65
     0
276
    -2
286
     1
 66
     0
277
    -2
287
     1
 67
     0
278
    -2
288
     1
 68
     0
279
    -2
289
     1
 69
     0
  0
VISUALSTYLE
  5
2F
102
{ACAD_XDICTIONARY
360
5B3
102
}
102
{ACAD_REACTORS
330
29
102
}
330
29
100
AcDbVisualStyle
  2
2dWireframe
 70
     4
 71
     0
 72
     2
 73
     0
 90
        0
 40
-0.6
 41
-30.0
 62
     5
 63
     7
 74
     1
 91
        4
 64
     7
 65
   257
 75
     1
175
     1
 42
1.0
 92
        0
 66
   257
 43
1.0
 76
     1
 77
     6
 78
     2
 67
     7
 79
     5
170
     0
171
     0
290
     0
174
     0
 93
        1
 44
0.0
173
     0
291
     0
 45
0.0
1001
ACAD
1000
AcDbSavedByObjectVersion
1070
     0
  0
VISUALSTYLE
  5
2E
102
{ACAD_XDICTIONARY
360
5B1
102
}
102
{ACAD_REACTORS
330
29
102
}
330
29
100
AcDbVisualStyle
  2
Basic
 70
     7
 71
     1
 72
     0
 73
     1
 90
        0
 40
-0.6
 41
-30.0
 62
     5
 63
     7
 74
     0
 91
        4
 64
     7
 65
   257
 75
     1
175
     1
 42
1.0
 92
        8
 66
     7
 43
1.0
 76
     1
 77
     6
 78
     2
 67
     7
 79
     5
170
     0
171
     0
290
     0
174
     0
 93
        1
 44
0.0
173
     0
291
     1
 45
0.0
1001
ACAD
1000
AcDbSavedByObjectVersion
1070
     0
  0
VISUALSTYLE
  5
35
102
{ACAD_XDICTIONARY
360
5BF
102
}
102
{ACAD_REACTORS
330
29
102
}
330
29
100
AcDbVisualStyle
  2
Brighten
 70
    12
 71
     2
 72
     2
 73
     0
 90
        0
 40
-0.6
 41
-30.0
 62
     5
 63
     7
 74
     1
 91
        4
 64
     7
 65
   257
 75
     1
175
     1
 42
1.0
 92
        8
 66
     7
 43
1.0
 76
     1
 77
     6
 78
     2
 67
     7
 79
     5
170
     0
171
     0
290
     0
174
     0
 93
        1
 44
50.0
173
     0
291
     1
 45
0.0
1001
ACAD
1000
AcDbSavedByObjectVersion
1070
     0
  0
VISUALSTYLE
  5
39
102
{ACAD_XDICTIONARY
360
5C7
102
}
102
{ACAD_REACTORS
330
29
102
}
330
29
100
AcDbVisualStyle
  2
ColorChange
 70
    16
 71
     2
 72
     2
 73
     3
 90
        0
 40
-0.6
 41
-30.0
 62
     5
 63
     8
 74
     1
 91
        4
 64
     7
 65
   257
 75
     1
175
     1
 42
1.0
 92
        8
 66
     8
 43
1.0
 76
     1
 77
     6
 78
     2
 67
     7
 79
     5
170
     0
171
     0
290
     0
174
     0
 93
        1
 44
0.0
173
     0
291
     1
 45
0.0
1001
ACAD
1000
AcDbSavedByObjectVersion
1070
     0
  0
VISUALSTYLE
  5
32
102
{ACAD_XDICTIONARY
360
5B9
102
}
102
{ACAD_REACTORS
330
29
102
}
330
29
100
AcDbVisualStyle
  2
Conceptual
 70
     9
 71
     3
 72
     2
 73
     0
 90
        0
 40
-0.6
 41
-30.0
 62
     5
 63
     7
 74
     2
 91
        2
 64
     7
 65
   257
 75
     1
175
     1
 42
179.0
 92
        8
 66
     7
 43
1.0
 76
     1
 77
     6
 78
     2
 67
     7
 79
     3
170
     0
171
     0
290
     0
174
     0
 93
        1
 44
0.0
173
     0
291
     0
 45
0.0
1001
ACAD
1000
AcDbSavedByObjectVersion
1070
     0
  0
VISUALSTYLE
  5
34
102
{ACAD_XDICTIONARY
360
5BD
102
}
102
{ACAD_REACTORS
330
29
102
}
330
29
100
AcDbVisualStyle
  2
Dim
 70
    11
 71
     2
 72
     2
 73
     0
 90
        0
 40
-0.6
 41
-30.0
 62
     5
 63
     7
 74
     1
 91
        4
 64
     7
 65
   257
 75
     1
175
     1
 42
1.0
 92
        8
 66
     7
 43
1.0
 76
     1
 77
     6
 78
     2
 67
     7
 79
     5
170
     0
171
     0
290
     0
174
     0
 93
        1
 44
-50.0
173
     0
291
     1
 45
0.0
1001
ACAD
1000
AcDbSavedByObjectVersion
1070
     0
  0
VISUALSTYLE
  5
41
102
{ACAD_XDICTIONARY
360
5D7
102
}
102
{ACAD_REACTORS
330
29
102
}
330
29
100
AcDbVisualStyle
  2
EdgeColorOff
 70
    22
 71
     2
 72
     2
 73
     0
 90
        0
 40
-0.6
 41
-30.0
 62
     5
 63
     7
 74
     1
 91
        4
 64
     7
 65
   257
 75
     1
175
     1
 42
1.0
 92
        8
 66
     7
 43
1.0
 76
     1
 77
     6
 78
     2
 67
     7
 79
     5
170
     0
171
     0
290
     0
174
     0
 93
        1
 44
0.0
173
     0
291
     1
 45
0.0
1001
ACAD
1000
AcDbSavedByObjectVersion
1070
     0
  0
VISUALSTYLE
  5
38
102
{ACAD_XDICTIONARY
360
5C5
102
}
102
{ACAD_REACTORS
330
29
102
}
330
29
100
AcDbVisualStyle
  2
Facepattern
 70
    15
 71
     2
 72
     2
 73
     0
 90
        0
 40
-0.6
 41
-30.0
 62
     5
 63
     7
 74
     1
 91
        4
 64
     7
 65
   257
 75
     1
175
     1
 42
1.0
 92
        8
 66
     7
 43
1.0
 76
     1
 77
     6
 78
     2
 67
     7
 79
     5
170
     0
171
     0
290
     0
174
     0
 93
        1
 44
0.0
173
     0
291
     1
 45
0.0
1001
ACAD
1000
AcDbSavedByObjectVersion
1070
     0
  0
VISUALSTYLE
  5
2A
102
{ACAD_XDICTIONARY
360
5A9
102
}
102
{ACAD_REACTORS
330
29
102
}
330
29
100
AcDbVisualStyle
  2
Flat
 70
     0
 71
     2
 72
     1
 73
     1
 90
        2
 40
-0.6
 41
30.0
 62
     5
 63
     7
 74
     0
 91
        0
 64
     7
 65
   257
 75
     1
175
     1
 42
1.0
 92
        8
 66
     7
 43
1.0
 76
     1
 77
     6
 78
     2
 67
     7
 79
     5
170
     0
171
     0
290
     0
174
     0
 93
       13
 44
0.0
173
     0
291
     1
 45
0.0
1001
ACAD
1000
AcDbSavedByObjectVersion
1070
     0
  0
VISUALSTYLE
  5
2B
102
{ACAD_XDICTIONARY
360
5AB
102
}
102
{ACAD_REACTORS
330
29
102
}
330
29
100
AcDbVisualStyle
  2
FlatWithEdges
 70
     1
 71
     2
 72
     1
 73
     1
 90
        2
 40
-0.6
 41
30.0
 62
     5
 63
     7
 74
     1
 91
        0
 64
     7
 65
   257
 75
     1
175
     1
 42
1.0
 92
        0
 66
   257
 43
1.0
 76
     1
 77
     6
 78
     2
 67
     7
 79
     5
170
     0
171
     0
290
     0
174
     0
 93
       13
 44
0.0
173
     0
291
     1
 45
0.0
1001
ACAD
1000
AcDbSavedByObjectVersion
1070
     0
  0
VISUALSTYLE
  5
2C
102
{ACAD_XDICTIONARY
360
5AD
102
}
102
{ACAD_REACTORS
330
29
102
}
330
29
100
AcDbVisualStyle
  2
Gouraud
 70
     2
 71
     2
 72
     2
 73
     1
 90
        2
 40
-0.6
 41
30.0
 62
     5
 63
     7
 74
     0
 91
        0
 64
     7
 65
   257
 75
     1
175
     1
 42
1.0
 92
        0
 66
     7
 43
1.0
 76
     1
 77
     6
 78
     2
 67
     7
 79
     5
170
     0
171
     0
290
     0
174
     0
 93
       13
 44
0.0
173
     0
291
     1
 45
0.0
1001
ACAD
1000
AcDbSavedByObjectVersion
1070
     0
  0
VISUALSTYLE
  5
2D
102
{ACAD_XDICTIONARY
360
5AF
102
}
102
{ACAD_REACTORS
330
29
102
}
330
29
100
AcDbVisualStyle
  2
GouraudWithEdges
 70
     3
 71
     2
 72
     2
 73
     1
 90
        2
 40
-0.6
 41
30.0
 62
     5
 63
     7
 74
     1
 91
        0
 64
     7
 65
   257
 75
     1
175
     1
 42
1.0
 92
        0
 66
   257
 43
1.0
 76
     1
 77
     6
 78
     2
 67
     7
 79
     5
170
     0
171
     0
290
     0
174
     0
 93
       13
 44
0.0
173
     0
291
     1
 45
0.0
1001
ACAD
1000
AcDbSavedByObjectVersion
1070
     0
  0
VISUALSTYLE
  5
31
102
{ACAD_XDICTIONARY
360
5B7
102
}
102
{ACAD_REACTORS
330
29
102
}
330
29
100
AcDbVisualStyle
  2
Hidden
 70
     6
 71
     1
 72
     2
 73
     2
 90
        0
 40
-0.6
 41
-30.0
 62
     5
 63
     7
 74
     2
 91
        2
 64
     7
 65
   257
 75
     2
175
     1
 42
40.0
 92
        0
 66
   257
 43
1.0
 76
     1
 77
     6
 78
     2
 67
     7
 79
     3
170
     0
171
     0
290
     0
174
     0
 93
        1
 44
0.0
173
     0
291
     0
 45
0.0
1001
ACAD
1000
AcDbSavedByObjectVersion
1070
     0
  0
VISUALSTYLE
  5
3F
102
{ACAD_XDICTIONARY
360
5D3
102
}
102
{ACAD_REACTORS
330
29
102
}
330
29
100
AcDbVisualStyle
  2
JitterOff
 70
    20
 71
     2
 72
     2
 73
     0
 90
        0
 40
-0.6
 41
-30.0
 62
     5
 63
     7
 74
     1
 91
        4
 64
     7
 65
   257
 75
     1
175
     1
 42
1.0
 92
       10
 66
     7
 43
1.0
 76
     1
 77
     6
 78
     2
 67
     7
 79
     5
170
     0
171
     0
290
     0
174
     0
 93
        1
 44
0.0
173
     0
291
     1
 45
0.0
1001
ACAD
1000
AcDbSavedByObjectVersion
1070
     0
  0
VISUALSTYLE
  5
37
102
{ACAD_XDICTIONARY
360
5C3
102
}
102
{ACAD_REACTORS
330
29
102
}
330
29
100
AcDbVisualStyle
  2
Linepattern
 70
    14
 71
     2
 72
     2
 73
     0
 90
        0
 40
-0.6
 41
-30.0
 62
     5
 63
     7
 74
     1
 91
        4
 64
     7
 65
   257
 75
     7
175
     7
 42
1.0
 92
        8
 66
     7
 43
1.0
 76
     1
 77
     6
 78
     2
 67
     7
 79
     5
170
     0
171
     0
290
     0
174
     0
 93
        1
 44
0.0
173
     0
291
     1
 45
0.0
1001
ACAD
1000
AcDbSavedByObjectVersion
1070
     0
  0
VISUALSTYLE
  5
40
102
{ACAD_XDICTIONARY
360
5D5
102
}
102
{ACAD_REACTORS
330
29
102
}
330
29
100
AcDbVisualStyle
  2
OverhangOff
 70
    21
 71
     2
 72
     2
 73
     0
 90
        0
 40
-0.6
 41
-30.0
 62
     5
 63
     7
 74
     1
 91
        4
 64
     7
 65
   257
 75
     1
175
     1
 42
1.0
 92
        9
 66
     7
 43
1.0
 76
     1
 77
     6
 78
     2
 67
     7
 79
     5
170
     0
171
     0
290
     0
174
     0
 93
        1
 44
0.0
173
     0
291
     1
 45
0.0
1001
ACAD
1000
AcDbSavedByObjectVersion
1070
     0
  0
VISUALSTYLE
  5
33
102
{ACAD_XDICTIONARY
360
5BB
102
}
102
{ACAD_REACTORS
330
29
102
}
330
29
100
AcDbVisualStyle
  2
Realistic
 70
     8
 71
     2
 72
     3
 73
     0
 90
        2
 40
-0.6
 41
30.0
 62
     5
 63
     7
 74
     0
 91
        0
 64
     7
 65
   257
 75
     1
175
     1
 42
1.0
 92
        8
 66
   257
 43
1.0
 76
     1
 77
     6
 78
     2
 67
     7
 79
     3
170
     0
171
     0
290
     0
174
     0
 93
       13
 44
0.0
173
     0
291
     0
 45
0.0
1001
ACAD
1000
AcDbSavedByObjectVersion
1070
     0
  0
VISUALSTYLE
  5
3E
102
{ACAD_XDICTIONARY
360
5D1
102
}
102
{ACAD_REACTORS
330
29
102
}
330
29
100
AcDbVisualStyle
  2
Shaded
 70
    27
 71
     2
 72
     2
 73
     1
 90
        2
 40
-0.6
 41
30.0
 62
     5
 63
     7
 74
     0
 91
        4
 64
     7
 65
   257
 75
     1
175
     1
 42
1.0
 92
        8
 66
   257
 43
1.0
 76
     1
 77
     6
 78
     2
 67
     8
 79
     3
170
     0
171
     0
290
     0
174
     0
 93
        5
 44
0.0
173
     0
291
     0
 45
0.0
1001
ACAD
1000
AcDbSavedByObjectVersion
1070
     0
  0
VISUALSTYLE
  5
3D
102
{ACAD_XDICTIONARY
360
5CF
102
}
102
{ACAD_REACTORS
330
29
102
}
330
29
100
AcDbVisualStyle
  2
Shaded with edges
 70
    26
 71
     2
 72
     2
 73
     1
 90
        2
 40
-0.6
 41
30.0
 62
     5
 63
     7
 74
     1
 91
       10
 64
     7
 65
   257
 75
     2
175
     1
 42
1.0
 92
        8
 66
   257
 43
1.0
 76
     1
 77
     6
 78
     2
 67
     7
 79
     3
170
     0
171
     0
290
     0
174
     0
 93
        5
 44
0.0
173
     0
291
     0
 45
0.0
1001
ACAD
1000
AcDbSavedByObjectVersion
1070
     0
  0
VISUALSTYLE
  5
3A
102
{ACAD_XDICTIONARY
360
5C9
102
}
102
{ACAD_REACTORS
330
29
102
}
330
29
100
AcDbVisualStyle
  2
Shades of Gray
 70
    23
 71
     2
 72
     2
 73
     3
 90
        0
 40
-0.6
 41
-30.0
 62
     5
 63
     7
 74
     2
 91
        2
 64
     7
 65
     7
 75
     1
175
     1
 42
40.0
 92
        8
 66
     7
 43
1.0
 76
     1
 77
     6
 78
     2
 67
     7
 79
     3
170
     0
171
     0
290
     0
174
     0
 93
        1
 44
0.0
173
     0
291
     0
 45
0.0
1001
ACAD
1000
AcDbSavedByObjectVersion
1070
     0
  0
VISUALSTYLE
  5
3B
102
{ACAD_XDICTIONARY
360
5CB
102
}
102
{ACAD_REACTORS
330
29
102
}
330
29
100
AcDbVisualStyle
  2
Sketchy
 70
    24
 71
     1
 72
     2
 73
     2
 90
        0
 40
-0.6
 41
-30.0
 62
     5
 63
     7
 74
     2
 91
        2
 64
     7
 65
     7
 75
     1
175
     1
 42
40.0
 92
       11
 66
     7
 43
1.0
 76
     1
 77
     6
 78
     2
 67
     7
 79
     6
170
     0
171
     0
290
     0
174
     0
 93
        1
 44
0.0
173
     0
291
     0
 45
0.0
1001
ACAD
1000
AcDbSavedByObjectVersion
1070
     0
  0
VISUALSTYLE
  5
36
102
{ACAD_XDICTIONARY
360
5C1
102
}
102
{ACAD_REACTORS
330
29
102
}
330
29
100
AcDbVisualStyle
  2
Thicken
 70
    13
 71
     2
 72
     2
 73
     0
 90
        0
 40
-0.6
 41
-30.0
 62
     5
 63
     7
 74
     1
 91
        4
 64
     7
 65
   257
 75
     1
175
     1
 42
1.0
 92
       12
 66
     7
 43
1.0
 76
     1
 77
     6
 78
     2
 67
     7
 79
     5
170
     0
171
     0
290
     0
174
     0
 93
        1
 44
0.0
173
     0
291
     1
 45
0.0
1001
ACAD
1000
AcDbSavedByObjectVersion
1070
     0
  0
VISUALSTYLE
  5
30
102
{ACAD_XDICTIONARY
360
5B5
102
}
102
{ACAD_REACTORS
330
29
102
}
330
29
100
AcDbVisualStyle
  2
Wireframe
 70
     5
 71
     0
 72
     2
 73
     0
 90
        0
 40
-0.6
 41
-30.0
 62
     5
 63
     7
 74
     1
 91
        4
 64
     7
 65
   257
 75
     1
175
     1
 42
1.0
 92
        0
 66
   257
 43
1.0
 76
     1
 77
     6
 78
     2
 67
     7
 79
     3
170
     0
171
     0
290
     0
174
     0
 93
        1
 44
0.0
173
     0
291
     0
 45
0.0
1001
ACAD
1000
AcDbSavedByObjectVersion
1070
     0
  0
VISUALSTYLE
  5
3C
102
{ACAD_XDICTIONARY
360
5CD
102
}
102
{ACAD_REACTORS
330
29
102
}
330
29
100
AcDbVisualStyle
  2
X-Ray
 70
    25
 71
     2
 72
     2
 73
     1
 90
        1
 40
0.5
 41
-30.0
 62
     5
 63
     7
 74
     1
 91
        0
 64
     7
 65
   257
 75
     1
175
     1
 42
1.0
 92
        8
 66
     7
 43
1.0
 76
     1
 77
     6
 78
     2
 67
     7
 79
     3
170
     0
171
     0
290
     0
174
     0
 93
       13
 44
0.0
173
     0
291
     0
 45
0.0
1001
ACAD
1000
AcDbSavedByObjectVersion
1070
     0
  0
DICTIONARYVAR
  5
599
102
{ACAD_REACTORS
330
595
102
}
330
595
100
DictionaryVariables
280
     0
  1
1:1
  0
DICTIONARYVAR
  5
597
102
{ACAD_REACTORS
330
595
102
}
330
595
100
DictionaryVariables
280
     0
  1
STANDARD
  0
DICTIONARYVAR
  5
596
102
{ACAD_REACTORS
330
595
102
}
330
595
100
DictionaryVariables
280
     0
  1
STANDARD
  0
DICTIONARYVAR
  5
5A0
102
{ACAD_REACTORS
330
595
102
}
330
595
100
DictionaryVariables
280
     0
  1
1
  0
DICTIONARYVAR
  5
59F
102
{ACAD_REACTORS
330
595
102
}
330
595
100
DictionaryVariables
280
     0
  1
1
  0
DICTIONARYVAR
  5
59E
102
{ACAD_REACTORS
330
595
102
}
330
595
100
DictionaryVariables
280
     0
  1
0
  0
DICTIONARYVAR
  5
59B
102
{ACAD_REACTORS
330
595
102
}
330
595
100
DictionaryVariables
280
     0
  1
0
  0
DICTIONARYVAR
  5
59C
102
{ACAD_REACTORS
330
595
102
}
330
595
100
DictionaryVariables
280
     0
  1
0
  0
DICTIONARYVAR
  5
59A
102
{ACAD_REACTORS
330
595
102
}
330
595
100
DictionaryVariables
280
     0
  1
2
  0
DICTIONARYVAR
  5
598
102
{ACAD_REACTORS
330
595
102
}
330
595
100
DictionaryVariables
280
     0
  1
1
  0
DICTIONARYVAR
  5
59D
102
{ACAD_REACTORS
330
595
102
}
330
595
100
DictionaryVariables
280
     0
  1
127
  0
DICTIONARYVAR
  5
5A1
102
{ACAD_REACTORS
330
595
102
}
330
595
100
DictionaryVariables
280
     0
  1
2
  0
DICTIONARY
  5
5DB
330
6B
100
AcDbDictionary
280
     1
281
     1
  3
ACAD_XREC_ROUNDTRIP
360
5DC
  0
DICTIONARY
  5
5DF
330
73
100
AcDbDictionary
280
     1
281
     1
  3
ACAD_XREC_ROUNDTRIP
360
5E0
  0
DICTIONARY
  5
5DD
330
6F
100
AcDbDictionary
280
     1
281
     1
  3
ACAD_XREC_ROUNDTRIP
360
5DE
  0
DICTIONARY
  5
1A
330
19
100
AcDbDictionary
280
     1
281
     1
  3
ACAD_XREC_ROUNDTRIP
360
5A7
  3
BUMPTILE
360
1C
  3
DIFFUSETILE
360
1B
  3
OPACITYTILE
360
1F
  3
REFLECTIONTILE
360
1E
  3
REFRACTIONTILE
360
20
  3
SPECULARTILE
360
1D
  0
DICTIONARY
  5
12
330
11
100
AcDbDictionary
280
     1
281
     1
  3
ACAD_XREC_ROUNDTRIP
360
5A6
  3
BUMPTILE
360
14
  3
DIFFUSETILE
360
13
  3
OPACITYTILE
360
17
  3
REFLECTIONTILE
360
16
  3
REFRACTIONTILE
360
18
  3
SPECULARTILE
360
15
  0
DICTIONARY
  5
22
330
21
100
AcDbDictionary
280
     1
281
     1
  3
ACAD_XREC_ROUNDTRIP
360
5A8
  3
BUMPTILE
360
24
  3
DIFFUSETILE
360
23
  3
OPACITYTILE
360
27
  3
REFLECTIONTILE
360
26
  3
REFRACTIONTILE
360
28
  3
SPECULARTILE
360
25
  0
DICTIONARY
  5
5A2
330
65
100
AcDbDictionary
280
     1
281
     1
  3
ACAD_ROUNDTRIP_2008_TABLESTYLE_CELLSTYLEMAP
360
5A3
  3
ACAD_XREC_ROUNDTRIP
360
5D9
  0
DICTIONARY
  5
5B3
330
2F
100
AcDbDictionary
280
     1
281
     1
  3
ACAD_XREC_ROUNDTRIP
360
5B4
  0
DICTIONARY
  5
5B1
330
2E
100
AcDbDictionary
280
     1
281
     1
  3
ACAD_XREC_ROUNDTRIP
360
5B2
  0
DICTIONARY
  5
5BF
330
35
100
AcDbDictionary
280
     1
281
     1
  3
ACAD_XREC_ROUNDTRIP
360
5C0
  0
DICTIONARY
  5
5C7
330
39
100
AcDbDictionary
280
     1
281
     1
  3
ACAD_XREC_ROUNDTRIP
360
5C8
  0
DICTIONARY
  5
5B9
330
32
100
AcDbDictionary
280
     1
281
     1
  3
ACAD_XREC_ROUNDTRIP
360
5BA
  0
DICTIONARY
  5
5BD
330
34
100
AcDbDictionary
280
     1
281
     1
  3
ACAD_XREC_ROUNDTRIP
360
5BE
  0
DICTIONARY
  5
5D7
330
41
100
AcDbDictionary
280
     1
281
     1
  3
ACAD_XREC_ROUNDTRIP
360
5D8
  0
DICTIONARY
  5
5C5
330
38
100
AcDbDictionary
280
     1
281
     1
  3
ACAD_XREC_ROUNDTRIP
360
5C6
  0
DICTIONARY
  5
5A9
330
2A
100
AcDbDictionary
280
     1
281
     1
  3
ACAD_XREC_ROUNDTRIP
360
5AA
  0
DICTIONARY
  5
5AB
330
2B
100
AcDbDictionary
280
     1
281
     1
  3
ACAD_XREC_ROUNDTRIP
360
5AC
  0
DICTIONARY
  5
5AD
330
2C
100
AcDbDictionary
280
     1
281
     1
  3
ACAD_XREC_ROUNDTRIP
360
5AE
  0
DICTIONARY
  5
5AF
330
2D
100
AcDbDictionary
280
     1
281
     1
  3
ACAD_XREC_ROUNDTRIP
360
5B0
  0
DICTIONARY
  5
5B7
330
31
100
AcDbDictionary
280
     1
281
     1
  3
ACAD_XREC_ROUNDTRIP
360
5B8
  0
DICTIONARY
  5
5D3
330
3F
100
AcDbDictionary
280
     1
281
     1
  3
ACAD_XREC_ROUNDTRIP
360
5D4
  0
DICTIONARY
  5
5C3
330
37
100
AcDbDictionary
280
     1
281
     1
  3
ACAD_XREC_ROUNDTRIP
360
5C4
  0
DICTIONARY
  5
5D5
330
40
100
AcDbDictionary
280
     1
281
     1
  3
ACAD_XREC_ROUNDTRIP
360
5D6
  0
DICTIONARY
  5
5BB
330
33
100
AcDbDictionary
280
     1
281
     1
  3
ACAD_XREC_ROUNDTRIP
360
5BC
  0
DICTIONARY
  5
5D1
330
3E
100
AcDbDictionary
280
     1
281
     1
  3
ACAD_XREC_ROUNDTRIP
360
5D2
  0
DICTIONARY
  5
5CF
330
3D
100
AcDbDictionary
280
     1
281
     1
  3
ACAD_XREC_ROUNDTRIP
360
5D0
  0
DICTIONARY
  5
5C9
330
3A
100
AcDbDictionary
280
     1
281
     1
  3
ACAD_XREC_ROUNDTRIP
360
5CA
  0
DICTIONARY
  5
5CB
330
3B
100
AcDbDictionary
280
     1
281
     1
  3
ACAD_XREC_ROUNDTRIP
360
5CC
  0
DICTIONARY
  5
5C1
330
36
100
AcDbDictionary
280
     1
281
     1
  3
ACAD_XREC_ROUNDTRIP
360
5C2
  0
DICTIONARY
  5
5B5
330
30
100
AcDbDictionary
280
     1
281
     1
  3
ACAD_XREC_ROUNDTRIP
360
5B6
  0
DICTIONARY
  5
5CD
330
3C
100
AcDbDictionary
280
     1
281
     1
  3
ACAD_XREC_ROUNDTRIP
360
5CE
  0
XRECORD
  5
5DC
102
{ACAD_REACTORS
330
5DB
102
}
330
5DB
100
AcDbXrecord
280
     1
102
SHADEPLOT
 70
     0
102
SHADEPLOTRESLEVEL
 70
     2
102
SHADEPLOTCUSTOMDPI
 70
   300
  0
XRECORD
  5
5E0
102
{ACAD_REACTORS
330
5DF
102
}
330
5DF
100
AcDbXrecord
280
     1
102
SHADEPLOT
 70
     0
102
SHADEPLOTRESLEVEL
 70
     2
102
SHADEPLOTCUSTOMDPI
 70
   300
  0
XRECORD
  5
5DE
102
{ACAD_REACTORS
330
5DD
102
}
330
5DD
100
AcDbXrecord
280
     1
102
SHADEPLOT
 70
     0
102
SHADEPLOTRESLEVEL
 70
     2
102
SHADEPLOTCUSTOMDPI
 70
   300
  0
XRECORD
  5
5A7
102
{ACAD_REACTORS
330
1A
102
}
330
1A
100
AcDbXrecord
280
     1
102
MATERIAL
148
0.0
149
0.0
149
0.0
 93
        0
 94
      127
282
     0
 72
     0
 77
     0
171
     0
175
     0
179
     0
273
     0
  0
XRECORD
  5
1C
102
{ACAD_REACTORS
330
1A
102
}
330
1A
100
AcDbXrecord
280
     1
270
     1
271
     1
  0
XRECORD
  5
1B
102
{ACAD_REACTORS
330
1A
102
}
330
1A
100
AcDbXrecord
280
     1
270
     1
271
     1
  0
XRECORD
  5
1F
102
{ACAD_REACTORS
330
1A
102
}
330
1A
100
AcDbXrecord
280
     1
270
     1
271
     1
  0
XRECORD
  5
1E
102
{ACAD_REACTORS
330
1A
102
}
330
1A
100
AcDbXrecord
280
     1
270
     1
271
     1
  0
XRECORD
  5
20
102
{ACAD_REACTORS
330
1A
102
}
330
1A
100
AcDbXrecord
280
     1
270
     1
271
     1
  0
XRECORD
  5
1D
102
{ACAD_REACTORS
330
1A
102
}
330
1A
100
AcDbXrecord
280
     1
270
     1
271
     1
  0
XRECORD
  5
5A6
102
{ACAD_REACTORS
330
12
102
}
330
12
100
AcDbXrecord
280
     1
102
MATERIAL
148
0.0
149
0.0
149
0.0
 93
        0
 94
      127
282
     0
 72
     0
 77
     0
171
     0
175
     0
179
     0
273
     0
  0
XRECORD
  5
14
102
{ACAD_REACTORS
330
12
102
}
330
12
100
AcDbXrecord
280
     1
270
     1
271
     1
  0
XRECORD
  5
13
102
{ACAD_REACTORS
330
12
102
}
330
12
100
AcDbXrecord
280
     1
270
     1
271
     1
  0
XRECORD
  5
17
102
{ACAD_REACTORS
330
12
102
}
330
12
100
AcDbXrecord
280
     1
270
     1
271
     1
  0
XRECORD
  5
16
102
{ACAD_REACTORS
330
12
102
}
330
12
100
AcDbXrecord
280
     1
270
     1
271
     1
  0
XRECORD
  5
18
102
{ACAD_REACTORS
330
12
102
}
330
12
100
AcDbXrecord
280
     1
270
     1
271
     1
  0
XRECORD
  5
15
102
{ACAD_REACTORS
330
12
102
}
330
12
100
AcDbXrecord
280
     1
270
     1
271
     1
  0
XRECORD
  5
5A8
102
{ACAD_REACTORS
330
22
102
}
330
22
100
AcDbXrecord
280
     1
102
MATERIAL
148
0.0
149
0.0
149
0.0
 93
        0
 94
      127
282
     0
 72
     0
 77
     0
171
     0
175
     0
179
     0
273
     0
  0
XRECORD
  5
24
102
{ACAD_REACTORS
330
22
102
}
330
22
100
AcDbXrecord
280
     1
270
     1
271
     1
  0
XRECORD
  5
23
102
{ACAD_REACTORS
330
22
102
}
330
22
100
AcDbXrecord
280
     1
270
     1
271
     1
  0
XRECORD
  5
27
102
{ACAD_REACTORS
330
22
102
}
330
22
100
AcDbXrecord
280
     1
270
     1
271
     1
  0
XRECORD
  5
26
102
{ACAD_REACTORS
330
22
102
}
330
22
100
AcDbXrecord
280
     1
270
     1
271
     1
  0
XRECORD
  5
28
102
{ACAD_REACTORS
330
22
102
}
330
22
100
AcDbXrecord
280
     1
270
     1
271
     1
  0
XRECORD
  5
25
102
{ACAD_REACTORS
330
22
102
}
330
22
100
AcDbXrecord
280
     1
270
     1
271
     1
  0
CELLSTYLEMAP
  5
5A3
102
{ACAD_REACTORS
330
5A2
102
}
330
5A2
100
AcDbCellStyleMap
 90
        3
300
CELLSTYLE
  1
TABLEFORMAT_BEGIN
 90
        5
170
     1
 91
        0
 92
    32768
 62
   257
 93
        1
300
CONTENTFORMAT
  1
CONTENTFORMAT_BEGIN
 90
        0
 91
        0
 92
      512
 93
        0
300

 40
0.0
140
1.0
 94
        5
 62
     0
340
55
144
0.25
309
CONTENTFORMAT_END
171
     0
 94
        0
309
TABLEFORMAT_END
  1
CELLSTYLE_BEGIN
 90
        1
 91
        1
300
_TITLE
309
CELLSTYLE_END
300
CELLSTYLE
  1
TABLEFORMAT_BEGIN
 90
        5
170
     1
 91
        0
 92
        0
 62
   257
 93
        1
300
CONTENTFORMAT
  1
CONTENTFORMAT_BEGIN
 90
        0
 91
        0
 92
      512
 93
        0
300

 40
0.0
140
1.0
 94
        5
 62
     0
340
55
144
0.18
309
CONTENTFORMAT_END
171
     0
 94
        0
309
TABLEFORMAT_END
  1
CELLSTYLE_BEGIN
 90
        2
 91
        1
300
_HEADER
309
CELLSTYLE_END
300
CELLSTYLE
  1
TABLEFORMAT_BEGIN
 90
        5
170
     1
 91
        0
 92
        0
 62
   257
 93
        1
300
CONTENTFORMAT
  1
CONTENTFORMAT_BEGIN
 90
        0
 91
        0
 92
      512
 93
        0
300

 40
0.0
140
1.0
 94
        2
 62
     0
340
55
144
0.18
309
CONTENTFORMAT_END
171
     0
 94
        0
309
TABLEFORMAT_END
  1
CELLSTYLE_BEGIN
 90
        3
 91
        2
300
_DATA
309
CELLSTYLE_END
  0
XRECORD
  5
5D9
102
{ACAD_REACTORS
330
5A2
102
}
330
5A2
100
AcDbXrecord
280
     1
102
ACAD_ROUNDTRIP_PRE2007_TABLESTYLE
 90
      512
 91
        0
  1

 92
      512
 93
        0
  2

 94
      512
 95
        0
  3

  0
XRECORD
  5
5B4
102
{ACAD_REACTORS
330
5B3
102
}
330
5B3
100
AcDbXrecord
280
     1
102
RTVSPropertyOp0
 70
     1
102
RTVSPropertyOp1
 70
     1
102
RTVSPropertyOp2
 70
     1
102
RTVSPropertyOp3
 70
     1
102
RTVSPropertyOp4
 70
     1
102
RTVSPropertyOp5
 70
     1
102
RTVSPropertyOp6
 70
     1
102
RTVSPropertyOp7
 70
     1
102
RTVSPropertyOp8
 70
     1
102
RTVSPropertyOp9
 70
     1
102
RTVSPropertyOp10
 70
     1
102
RTVSPropertyOp11
 70
     1
102
RTVSPropertyOp12
 70
     1
102
RTVSPropertyOp13
 70
     1
102
RTVSPropertyOp14
 70
     1
102
RTVSPropertyOp15
 70
     1
102
RTVSPropertyOp16
 70
     1
102
RTVSPropertyOp17
 70
     1
102
RTVSPropertyOp18
 70
     1
102
RTVSPropertyOp19
 70
     1
102
RTVSPropertyOp20
 70
     1
102
RTVSPropertyOp21
 70
     1
102
RTVSPropertyOp22
 70
     1
102
RTVSPropertyOp23
 70
     1
102
RTVSPropertyOp24
 70
     1
102
RTVSPropertyOp25
 70
     1
102
RTVSPropertyOp26
 70
     1
102
RTVSPropertyOp27
 70
     1
102
RTVSPropertyOp28
 70
     1
102
RTVSPropertyOp29
 70
     1
102
RTVSPropertyOp30
 70
     1
102
RTVSPropertyOp31
 70
     1
102
RTVSPropertyOp32
 70
     1
  0
XRECORD
  5
5B2
102
{ACAD_REACTORS
330
5B1
102
}
330
5B1
100
AcDbXrecord
280
     1
102
RTVSPropertyOp0
 70
     1
102
RTVSPropertyOp1
 70
     1
102
RTVSPropertyOp2
 70
     1
102
RTVSPropertyOp3
 70
     1
102
RTVSPropertyOp4
 70
     1
102
RTVSPropertyOp5
 70
     1
102
RTVSPropertyOp6
 70
     1
102
RTVSPropertyOp7
 70
     1
102
RTVSPropertyOp8
 70
     1
102
RTVSPropertyOp9
 70
     1
102
RTVSPropertyOp10
 70
     1
102
RTVSPropertyOp11
 70
     1
102
RTVSPropertyOp12
 70
     1
102
RTVSPropertyOp13
 70
     1
102
RTVSPropertyOp14
 70
     1
102
RTVSPropertyOp15
 70
     1
102
RTVSPropertyOp16
 70
     1
102
RTVSPropertyOp17
 70
     1
102
RTVSPropertyOp18
 70
     1
102
RTVSPropertyOp19
 70
     1
102
RTVSPropertyOp20
 70
     1
102
RTVSPropertyOp21
 70
     1
102
RTVSPropertyOp22
 70
     1
102
RTVSPropertyOp23
 70
     1
102
RTVSPropertyOp24
 70
     1
102
RTVSPropertyOp25
 70
     1
102
RTVSPropertyOp26
 70
     1
102
RTVSPropertyOp27
 70
     1
102
RTVSPropertyOp28
 70
     1
102
RTVSPropertyOp29
 70
     1
102
RTVSPropertyOp30
 70
     1
102
RTVSPropertyOp31
 70
     1
102
RTVSPropertyOp32
 70
     1
  0
XRECORD
  5
5C0
102
{ACAD_REACTORS
330
5BF
102
}
330
5BF
100
AcDbXrecord
280
     1
102
RTVSPropertyOp0
 70
     1
102
RTVSPropertyOp1
 70
     1
102
RTVSPropertyOp2
 70
     1
102
RTVSPropertyOp3
 70
     1
102
RTVSPropertyOp4
 70
     1
102
RTVSPropertyOp5
 70
     1
102
RTVSPropertyOp6
 70
     1
102
RTVSPropertyOp7
 70
     1
102
RTVSPropertyOp8
 70
     1
102
RTVSPropertyOp9
 70
     1
102
RTVSPropertyOp10
 70
     1
102
RTVSPropertyOp11
 70
     1
102
RTVSPropertyOp12
 70
     1
102
RTVSPropertyOp13
 70
     1
102
RTVSPropertyOp14
 70
     1
102
RTVSPropertyOp15
 70
     1
102
RTVSPropertyOp16
 70
     1
102
RTVSPropertyOp17
 70
     1
102
RTVSPropertyOp18
 70
     1
102
RTVSPropertyOp19
 70
     1
102
RTVSPropertyOp20
 70
     1
102
RTVSPropertyOp21
 70
     1
102
RTVSPropertyOp22
 70
     1
102
RTVSPropertyOp23
 70
     1
102
RTVSPropertyOp24
 70
     1
102
RTVSPropertyOp25
 70
     1
102
RTVSPropertyOp26
 70
     1
102
RTVSPropertyOp27
 70
     1
102
RTVSPropertyOp28
 70
     1
102
RTVSPropertyOp29
 70
     1
102
RTVSPropertyOp30
 70
     1
102
RTVSPropertyOp31
 70
     1
102
RTVSPropertyOp32
 70
     1
  0
XRECORD
  5
5C8
102
{ACAD_REACTORS
330
5C7
102
}
330
5C7
100
AcDbXrecord
280
     1
102
RTVSPropertyOp0
 70
     1
102
RTVSPropertyOp1
 70
     1
102
RTVSPropertyOp2
 70
     1
102
RTVSPropertyOp3
 70
     1
102
RTVSPropertyOp4
 70
     1
102
RTVSPropertyOp5
 70
     1
102
RTVSPropertyOp6
 70
     1
102
RTVSPropertyOp7
 70
     1
102
RTVSPropertyOp8
 70
     1
102
RTVSPropertyOp9
 70
     1
102
RTVSPropertyOp10
 70
     1
102
RTVSPropertyOp11
 70
     1
102
RTVSPropertyOp12
 70
     1
102
RTVSPropertyOp13
 70
     1
102
RTVSPropertyOp14
 70
     1
102
RTVSPropertyOp15
 70
     1
102
RTVSPropertyOp16
 70
     1
102
RTVSPropertyOp17
 70
     1
102
RTVSPropertyOp18
 70
     1
102
RTVSPropertyOp19
 70
     1
102
RTVSPropertyOp20
 70
     1
102
RTVSPropertyOp21
 70
     1
102
RTVSPropertyOp22
 70
     1
102
RTVSPropertyOp23
 70
     1
102
RTVSPropertyOp24
 70
     1
102
RTVSPropertyOp25
 70
     1
102
RTVSPropertyOp26
 70
     1
102
RTVSPropertyOp27
 70
     1
102
RTVSPropertyOp28
 70
     1
102
RTVSPropertyOp29
 70
     1
102
RTVSPropertyOp30
 70
     1
102
RTVSPropertyOp31
 70
     1
102
RTVSPropertyOp32
 70
     1
  0
XRECORD
  5
5BA
102
{ACAD_REACTORS
330
5B9
102
}
330
5B9
100
AcDbXrecord
280
     1
102
RTVSPropertyOp0
 70
     1
102
RTVSPropertyOp1
 70
     1
102
RTVSPropertyOp2
 70
     1
102
RTVSPropertyOp3
 70
     1
102
RTVSPropertyOp4
 70
     1
102
RTVSPropertyOp5
 70
     1
102
RTVSPropertyOp6
 70
     1
102
RTVSPropertyOp7
 70
     1
102
RTVSPropertyOp8
 70
     1
102
RTVSPropertyOp9
 70
     1
102
RTVSPropertyOp10
 70
     1
102
RTVSPropertyOp11
 70
     1
102
RTVSPropertyOp12
 70
     1
102
RTVSPropertyOp13
 70
     1
102
RTVSPropertyOp14
 70
     1
102
RTVSPropertyOp15
 70
     1
102
RTVSPropertyOp16
 70
     1
102
RTVSPropertyOp17
 70
     1
102
RTVSPropertyOp18
 70
     1
102
RTVSPropertyOp19
 70
     1
102
RTVSPropertyOp20
 70
     1
102
RTVSPropertyOp21
 70
     1
102
RTVSPropertyOp22
 70
     1
102
RTVSPropertyOp23
 70
     1
102
RTVSPropertyOp24
 70
     1
102
RTVSPropertyOp25
 70
     1
102
RTVSPropertyOp26
 70
     1
102
RTVSPropertyOp27
 70
     1
102
RTVSPropertyOp28
 70
     1
102
RTVSPropertyOp29
 70
     1
102
RTVSPropertyOp30
 70
     1
102
RTVSPropertyOp31
 70
     1
102
RTVSPropertyOp32
 70
     1
  0
XRECORD
  5
5BE
102
{ACAD_REACTORS
330
5BD
102
}
330
5BD
100
AcDbXrecord
280
     1
102
RTVSPropertyOp0
 70
     1
102
RTVSPropertyOp1
 70
     1
102
RTVSPropertyOp2
 70
     1
102
RTVSPropertyOp3
 70
     1
102
RTVSPropertyOp4
 70
     1
102
RTVSPropertyOp5
 70
     1
102
RTVSPropertyOp6
 70
     1
102
RTVSPropertyOp7
 70
     1
102
RTVSPropertyOp8
 70
     1
102
RTVSPropertyOp9
 70
     1
102
RTVSPropertyOp10
 70
     1
102
RTVSPropertyOp11
 70
     1
102
RTVSPropertyOp12
 70
     1
102
RTVSPropertyOp13
 70
     1
102
RTVSPropertyOp14
 70
     1
102
RTVSPropertyOp15
 70
     1
102
RTVSPropertyOp16
 70
     1
102
RTVSPropertyOp17
 70
     1
102
RTVSPropertyOp18
 70
     1
102
RTVSPropertyOp19
 70
     1
102
RTVSPropertyOp20
 70
     1
102
RTVSPropertyOp21
 70
     1
102
RTVSPropertyOp22
 70
     1
102
RTVSPropertyOp23
 70
     1
102
RTVSPropertyOp24
 70
     1
102
RTVSPropertyOp25
 70
     1
102
RTVSPropertyOp26
 70
     1
102
RTVSPropertyOp27
 70
     1
102
RTVSPropertyOp28
 70
     1
102
RTVSPropertyOp29
 70
     1
102
RTVSPropertyOp30
 70
     1
102
RTVSPropertyOp31
 70
     1
102
RTVSPropertyOp32
 70
     1
  0
XRECORD
  5
5D8
102
{ACAD_REACTORS
330
5D7
102
}
330
5D7
100
AcDbXrecord
280
     1
102
RTVSPropertyOp0
 70
     0
102
RTVSPropertyOp1
 70
     0
102
RTVSPropertyOp2
 70
     0
102
RTVSPropertyOp3
 70
     0
102
RTVSPropertyOp4
 70
     0
102
RTVSPropertyOp5
 70
     0
102
RTVSPropertyOp6
 70
     0
102
RTVSPropertyOp7
 70
     0
102
RTVSPropertyOp8
 70
     0
102
RTVSPropertyOp9
 70
     0
102
RTVSPropertyOp10
 70
     0
102
RTVSPropertyOp11
 70
     0
102
RTVSPropertyOp12
 70
     0
102
RTVSPropertyOp13
 70
     0
102
RTVSPropertyOp14
 70
     2
102
RTVSPropertyOp15
 70
     0
102
RTVSPropertyOp16
 70
     0
102
RTVSPropertyOp17
 70
     0
102
RTVSPropertyOp18
 70
     0
102
RTVSPropertyOp19
 70
     0
102
RTVSPropertyOp20
 70
     0
102
RTVSPropertyOp21
 70
     0
102
RTVSPropertyOp22
 70
     0
102
RTVSPropertyOp23
 70
     0
102
RTVSPropertyOp24
 70
     0
102
RTVSPropertyOp25
 70
     0
102
RTVSPropertyOp26
 70
     0
102
RTVSPropertyOp27
 70
     0
102
RTVSPropertyOp28
 70
     0
102
RTVSPropertyOp29
 70
     0
102
RTVSPropertyOp30
 70
     0
102
RTVSPropertyOp31
 70
     0
102
RTVSPropertyOp32
 70
     0
  0
XRECORD
  5
5C6
102
{ACAD_REACTORS
330
5C5
102
}
330
5C5
100
AcDbXrecord
280
     1
102
RTVSPropertyOp0
 70
     1
102
RTVSPropertyOp1
 70
     1
102
RTVSPropertyOp2
 70
     1
102
RTVSPropertyOp3
 70
     1
102
RTVSPropertyOp4
 70
     1
102
RTVSPropertyOp5
 70
     1
102
RTVSPropertyOp6
 70
     1
102
RTVSPropertyOp7
 70
     1
102
RTVSPropertyOp8
 70
     1
102
RTVSPropertyOp9
 70
     1
102
RTVSPropertyOp10
 70
     1
102
RTVSPropertyOp11
 70
     1
102
RTVSPropertyOp12
 70
     1
102
RTVSPropertyOp13
 70
     1
102
RTVSPropertyOp14
 70
     1
102
RTVSPropertyOp15
 70
     1
102
RTVSPropertyOp16
 70
     1
102
RTVSPropertyOp17
 70
     1
102
RTVSPropertyOp18
 70
     1
102
RTVSPropertyOp19
 70
     1
102
RTVSPropertyOp20
 70
     1
102
RTVSPropertyOp21
 70
     1
102
RTVSPropertyOp22
 70
     1
102
RTVSPropertyOp23
 70
     1
102
RTVSPropertyOp24
 70
     1
102
RTVSPropertyOp25
 70
     1
102
RTVSPropertyOp26
 70
     1
102
RTVSPropertyOp27
 70
     1
102
RTVSPropertyOp28
 70
     1
102
RTVSPropertyOp29
 70
     1
102
RTVSPropertyOp30
 70
     1
102
RTVSPropertyOp31
 70
     1
102
RTVSPropertyOp32
 70
     1
  0
XRECORD
  5
5AA
102
{ACAD_REACTORS
330
5A9
102
}
330
5A9
100
AcDbXrecord
280
     1
102
RTVSPropertyOp0
 70
     1
102
RTVSPropertyOp1
 70
     1
102
RTVSPropertyOp2
 70
     1
102
RTVSPropertyOp3
 70
     1
102
RTVSPropertyOp4
 70
     1
102
RTVSPropertyOp5
 70
     1
102
RTVSPropertyOp6
 70
     1
102
RTVSPropertyOp7
 70
     1
102
RTVSPropertyOp8
 70
     1
102
RTVSPropertyOp9
 70
     1
102
RTVSPropertyOp10
 70
     1
102
RTVSPropertyOp11
 70
     1
102
RTVSPropertyOp12
 70
     1
102
RTVSPropertyOp13
 70
     1
102
RTVSPropertyOp14
 70
     1
102
RTVSPropertyOp15
 70
     1
102
RTVSPropertyOp16
 70
     1
102
RTVSPropertyOp17
 70
     1
102
RTVSPropertyOp18
 70
     1
102
RTVSPropertyOp19
 70
     1
102
RTVSPropertyOp20
 70
     1
102
RTVSPropertyOp21
 70
     1
102
RTVSPropertyOp22
 70
     1
102
RTVSPropertyOp23
 70
     1
102
RTVSPropertyOp24
 70
     1
102
RTVSPropertyOp25
 70
     1
102
RTVSPropertyOp26
 70
     1
102
RTVSPropertyOp27
 70
     1
102
RTVSPropertyOp28
 70
     1
102
RTVSPropertyOp29
 70
     1
102
RTVSPropertyOp30
 70
     1
102
RTVSPropertyOp31
 70
     1
102
RTVSPropertyOp32
 70
     1
  0
XRECORD
  5
5AC
102
{ACAD_REACTORS
330
5AB
102
}
330
5AB
100
AcDbXrecord
280
     1
102
RTVSPropertyOp0
 70
     1
102
RTVSPropertyOp1
 70
     1
102
RTVSPropertyOp2
 70
     1
102
RTVSPropertyOp3
 70
     1
102
RTVSPropertyOp4
 70
     1
102
RTVSPropertyOp5
 70
     1
102
RTVSPropertyOp6
 70
     1
102
RTVSPropertyOp7
 70
     1
102
RTVSPropertyOp8
 70
     1
102
RTVSPropertyOp9
 70
     1
102
RTVSPropertyOp10
 70
     1
102
RTVSPropertyOp11
 70
     1
102
RTVSPropertyOp12
 70
     1
102
RTVSPropertyOp13
 70
     1
102
RTVSPropertyOp14
 70
     1
102
RTVSPropertyOp15
 70
     1
102
RTVSPropertyOp16
 70
     1
102
RTVSPropertyOp17
 70
     1
102
RTVSPropertyOp18
 70
     1
102
RTVSPropertyOp19
 70
     1
102
RTVSPropertyOp20
 70
     1
102
RTVSPropertyOp21
 70
     1
102
RTVSPropertyOp22
 70
     1
102
RTVSPropertyOp23
 70
     1
102
RTVSPropertyOp24
 70
     1
102
RTVSPropertyOp25
 70
     1
102
RTVSPropertyOp26
 70
     1
102
RTVSPropertyOp27
 70
     1
102
RTVSPropertyOp28
 70
     1
102
RTVSPropertyOp29
 70
     1
102
RTVSPropertyOp30
 70
     1
102
RTVSPropertyOp31
 70
     1
102
RTVSPropertyOp32
 70
     1
  0
XRECORD
  5
5AE
102
{ACAD_REACTORS
330
5AD
102
}
330
5AD
100
AcDbXrecord
280
     1
102
RTVSPropertyOp0
 70
     1
102
RTVSPropertyOp1
 70
     1
102
RTVSPropertyOp2
 70
     1
102
RTVSPropertyOp3
 70
     1
102
RTVSPropertyOp4
 70
     1
102
RTVSPropertyOp5
 70
     1
102
RTVSPropertyOp6
 70
     1
102
RTVSPropertyOp7
 70
     1
102
RTVSPropertyOp8
 70
     1
102
RTVSPropertyOp9
 70
     1
102
RTVSPropertyOp10
 70
     1
102
RTVSPropertyOp11
 70
     1
102
RTVSPropertyOp12
 70
     1
102
RTVSPropertyOp13
 70
     1
102
RTVSPropertyOp14
 70
     1
102
RTVSPropertyOp15
 70
     1
102
RTVSPropertyOp16
 70
     1
102
RTVSPropertyOp17
 70
     1
102
RTVSPropertyOp18
 70
     1
102
RTVSPropertyOp19
 70
     1
102
RTVSPropertyOp20
 70
     1
102
RTVSPropertyOp21
 70
     1
102
RTVSPropertyOp22
 70
     1
102
RTVSPropertyOp23
 70
     1
102
RTVSPropertyOp24
 70
     1
102
RTVSPropertyOp25
 70
     1
102
RTVSPropertyOp26
 70
     1
102
RTVSPropertyOp27
 70
     1
102
RTVSPropertyOp28
 70
     1
102
RTVSPropertyOp29
 70
     1
102
RTVSPropertyOp30
 70
     1
102
RTVSPropertyOp31
 70
     1
102
RTVSPropertyOp32
 70
     1
  0
XRECORD
  5
5B0
102
{ACAD_REACTORS
330
5AF
102
}
330
5AF
100
AcDbXrecord
280
     1
102
RTVSPropertyOp0
 70
     1
102
RTVSPropertyOp1
 70
     1
102
RTVSPropertyOp2
 70
     1
102
RTVSPropertyOp3
 70
     1
102
RTVSPropertyOp4
 70
     1
102
RTVSPropertyOp5
 70
     1
102
RTVSPropertyOp6
 70
     1
102
RTVSPropertyOp7
 70
     1
102
RTVSPropertyOp8
 70
     1
102
RTVSPropertyOp9
 70
     1
102
RTVSPropertyOp10
 70
     1
102
RTVSPropertyOp11
 70
     1
102
RTVSPropertyOp12
 70
     1
102
RTVSPropertyOp13
 70
     1
102
RTVSPropertyOp14
 70
     1
102
RTVSPropertyOp15
 70
     1
102
RTVSPropertyOp16
 70
     1
102
RTVSPropertyOp17
 70
     1
102
RTVSPropertyOp18
 70
     1
102
RTVSPropertyOp19
 70
     1
102
RTVSPropertyOp20
 70
     1
102
RTVSPropertyOp21
 70
     1
102
RTVSPropertyOp22
 70
     1
102
RTVSPropertyOp23
 70
     1
102
RTVSPropertyOp24
 70
     1
102
RTVSPropertyOp25
 70
     1
102
RTVSPropertyOp26
 70
     1
102
RTVSPropertyOp27
 70
     1
102
RTVSPropertyOp28
 70
     1
102
RTVSPropertyOp29
 70
     1
102
RTVSPropertyOp30
 70
     1
102
RTVSPropertyOp31
 70
     1
102
RTVSPropertyOp32
 70
     1
  0
XRECORD
  5
5B8
102
{ACAD_REACTORS
330
5B7
102
}
330
5B7
100
AcDbXrecord
280
     1
102
RTVSPropertyOp0
 70
     1
102
RTVSPropertyOp1
 70
     1
102
RTVSPropertyOp2
 70
     1
102
RTVSPropertyOp3
 70
     1
102
RTVSPropertyOp4
 70
     1
102
RTVSPropertyOp5
 70
     1
102
RTVSPropertyOp6
 70
     1
102
RTVSPropertyOp7
 70
     1
102
RTVSPropertyOp8
 70
     1
102
RTVSPropertyOp9
 70
     1
102
RTVSPropertyOp10
 70
     1
102
RTVSPropertyOp11
 70
     1
102
RTVSPropertyOp12
 70
     1
102
RTVSPropertyOp13
 70
     1
102
RTVSPropertyOp14
 70
     1
102
RTVSPropertyOp15
 70
     1
102
RTVSPropertyOp16
 70
     1
102
RTVSPropertyOp17
 70
     1
102
RTVSPropertyOp18
 70
     1
102
RTVSPropertyOp19
 70
     1
102
RTVSPropertyOp20
 70
     1
102
RTVSPropertyOp21
 70
     1
102
RTVSPropertyOp22
 70
     1
102
RTVSPropertyOp23
 70
     1
102
RTVSPropertyOp24
 70
     1
102
RTVSPropertyOp25
 70
     1
102
RTVSPropertyOp26
 70
     1
102
RTVSPropertyOp27
 70
     1
102
RTVSPropertyOp28
 70
     1
102
RTVSPropertyOp29
 70
     1
102
RTVSPropertyOp30
 70
     1
102
RTVSPropertyOp31
 70
     1
102
RTVSPropertyOp32
 70
     1
  0
XRECORD
  5
5D4
102
{ACAD_REACTORS
330
5D3
102
}
330
5D3
100
AcDbXrecord
280
     1
102
RTVSPropertyOp0
 70
     0
102
RTVSPropertyOp1
 70
     0
102
RTVSPropertyOp2
 70
     0
102
RTVSPropertyOp3
 70
     0
102
RTVSPropertyOp4
 70
     0
102
RTVSPropertyOp5
 70
     0
102
RTVSPropertyOp6
 70
     0
102
RTVSPropertyOp7
 70
     0
102
RTVSPropertyOp8
 70
     0
102
RTVSPropertyOp9
 70
     0
102
RTVSPropertyOp10
 70
     0
102
RTVSPropertyOp11
 70
     0
102
RTVSPropertyOp12
 70
     0
102
RTVSPropertyOp13
 70
     0
102
RTVSPropertyOp14
 70
     2
102
RTVSPropertyOp15
 70
     0
102
RTVSPropertyOp16
 70
     0
102
RTVSPropertyOp17
 70
     0
102
RTVSPropertyOp18
 70
     0
102
RTVSPropertyOp19
 70
     0
102
RTVSPropertyOp20
 70
     0
102
RTVSPropertyOp21
 70
     0
102
RTVSPropertyOp22
 70
     0
102
RTVSPropertyOp23
 70
     0
102
RTVSPropertyOp24
 70
     0
102
RTVSPropertyOp25
 70
     0
102
RTVSPropertyOp26
 70
     0
102
RTVSPropertyOp27
 70
     0
102
RTVSPropertyOp28
 70
     0
102
RTVSPropertyOp29
 70
     0
102
RTVSPropertyOp30
 70
     0
102
RTVSPropertyOp31
 70
     0
102
RTVSPropertyOp32
 70
     0
  0
XRECORD
  5
5C4
102
{ACAD_REACTORS
330
5C3
102
}
330
5C3
100
AcDbXrecord
280
     1
102
RTVSPropertyOp0
 70
     1
102
RTVSPropertyOp1
 70
     1
102
RTVSPropertyOp2
 70
     1
102
RTVSPropertyOp3
 70
     1
102
RTVSPropertyOp4
 70
     1
102
RTVSPropertyOp5
 70
     1
102
RTVSPropertyOp6
 70
     1
102
RTVSPropertyOp7
 70
     1
102
RTVSPropertyOp8
 70
     1
102
RTVSPropertyOp9
 70
     1
102
RTVSPropertyOp10
 70
     1
102
RTVSPropertyOp11
 70
     1
102
RTVSPropertyOp12
 70
     1
102
RTVSPropertyOp13
 70
     1
102
RTVSPropertyOp14
 70
     1
102
RTVSPropertyOp15
 70
     1
102
RTVSPropertyOp16
 70
     1
102
RTVSPropertyOp17
 70
     1
102
RTVSPropertyOp18
 70
     1
102
RTVSPropertyOp19
 70
     1
102
RTVSPropertyOp20
 70
     1
102
RTVSPropertyOp21
 70
     1
102
RTVSPropertyOp22
 70
     1
102
RTVSPropertyOp23
 70
     1
102
RTVSPropertyOp24
 70
     1
102
RTVSPropertyOp25
 70
     1
102
RTVSPropertyOp26
 70
     1
102
RTVSPropertyOp27
 70
     1
102
RTVSPropertyOp28
 70
     1
102
RTVSPropertyOp29
 70
     1
102
RTVSPropertyOp30
 70
     1
102
RTVSPropertyOp31
 70
     1
102
RTVSPropertyOp32
 70
     1
  0
XRECORD
  5
5D6
102
{ACAD_REACTORS
330
5D5
102
}
330
5D5
100
AcDbXrecord
280
     1
102
RTVSPropertyOp0
 70
     0
102
RTVSPropertyOp1
 70
     0
102
RTVSPropertyOp2
 70
     0
102
RTVSPropertyOp3
 70
     0
102
RTVSPropertyOp4
 70
     0
102
RTVSPropertyOp5
 70
     0
102
RTVSPropertyOp6
 70
     0
102
RTVSPropertyOp7
 70
     0
102
RTVSPropertyOp8
 70
     0
102
RTVSPropertyOp9
 70
     0
102
RTVSPropertyOp10
 70
     0
102
RTVSPropertyOp11
 70
     0
102
RTVSPropertyOp12
 70
     0
102
RTVSPropertyOp13
 70
     0
102
RTVSPropertyOp14
 70
     2
102
RTVSPropertyOp15
 70
     0
102
RTVSPropertyOp16
 70
     0
102
RTVSPropertyOp17
 70
     0
102
RTVSPropertyOp18
 70
     0
102
RTVSPropertyOp19
 70
     0
102
RTVSPropertyOp20
 70
     0
102
RTVSPropertyOp21
 70
     0
102
RTVSPropertyOp22
 70
     0
102
RTVSPropertyOp23
 70
     0
102
RTVSPropertyOp24
 70
     0
102
RTVSPropertyOp25
 70
     0
102
RTVSPropertyOp26
 70
     0
102
RTVSPropertyOp27
 70
     0
102
RTVSPropertyOp28
 70
     0
102
RTVSPropertyOp29
 70
     0
102
RTVSPropertyOp30
 70
     0
102
RTVSPropertyOp31
 70
     0
102
RTVSPropertyOp32
 70
     0
  0
XRECORD
  5
5BC
102
{ACAD_REACTORS
330
5BB
102
}
330
5BB
100
AcDbXrecord
280
     1
102
RTVSPropertyOp0
 70
     1
102
RTVSPropertyOp1
 70
     1
102
RTVSPropertyOp2
 70
     1
102
RTVSPropertyOp3
 70
     1
102
RTVSPropertyOp4
 70
     1
102
RTVSPropertyOp5
 70
     1
102
RTVSPropertyOp6
 70
     1
102
RTVSPropertyOp7
 70
     1
102
RTVSPropertyOp8
 70
     1
102
RTVSPropertyOp9
 70
     1
102
RTVSPropertyOp10
 70
     1
102
RTVSPropertyOp11
 70
     1
102
RTVSPropertyOp12
 70
     1
102
RTVSPropertyOp13
 70
     1
102
RTVSPropertyOp14
 70
     1
102
RTVSPropertyOp15
 70
     1
102
RTVSPropertyOp16
 70
     1
102
RTVSPropertyOp17
 70
     1
102
RTVSPropertyOp18
 70
     1
102
RTVSPropertyOp19
 70
     1
102
RTVSPropertyOp20
 70
     1
102
RTVSPropertyOp21
 70
     1
102
RTVSPropertyOp22
 70
     1
102
RTVSPropertyOp23
 70
     1
102
RTVSPropertyOp24
 70
     1
102
RTVSPropertyOp25
 70
     1
102
RTVSPropertyOp26
 70
     1
102
RTVSPropertyOp27
 70
     1
102
RTVSPropertyOp28
 70
     1
102
RTVSPropertyOp29
 70
     1
102
RTVSPropertyOp30
 70
     1
102
RTVSPropertyOp31
 70
     1
102
RTVSPropertyOp32
 70
     1
  0
XRECORD
  5
5D2
102
{ACAD_REACTORS
330
5D1
102
}
330
5D1
100
AcDbXrecord
280
     1
102
RTVSPropertyOp0
 70
     1
102
RTVSPropertyOp1
 70
     1
102
RTVSPropertyOp2
 70
     1
102
RTVSPropertyOp3
 70
     1
102
RTVSPropertyOp4
 70
     1
102
RTVSPropertyOp5
 70
     1
102
RTVSPropertyOp6
 70
     1
102
RTVSPropertyOp7
 70
     1
102
RTVSPropertyOp8
 70
     1
102
RTVSPropertyOp9
 70
     1
102
RTVSPropertyOp10
 70
     1
102
RTVSPropertyOp11
 70
     1
102
RTVSPropertyOp12
 70
     1
102
RTVSPropertyOp13
 70
     1
102
RTVSPropertyOp14
 70
     1
102
RTVSPropertyOp15
 70
     1
102
RTVSPropertyOp16
 70
     1
102
RTVSPropertyOp17
 70
     1
102
RTVSPropertyOp18
 70
     1
102
RTVSPropertyOp19
 70
     1
102
RTVSPropertyOp20
 70
     1
102
RTVSPropertyOp21
 70
     1
102
RTVSPropertyOp22
 70
     1
102
RTVSPropertyOp23
 70
     1
102
RTVSPropertyOp24
 70
     1
102
RTVSPropertyOp25
 70
     1
102
RTVSPropertyOp26
 70
     1
102
RTVSPropertyOp27
 70
     1
102
RTVSPropertyOp28
 70
     1
102
RTVSPropertyOp29
 70
     1
102
RTVSPropertyOp30
 70
     1
102
RTVSPropertyOp31
 70
     1
102
RTVSPropertyOp32
 70
     1
  0
XRECORD
  5
5D0
102
{ACAD_REACTORS
330
5CF
102
}
330
5CF
100
AcDbXrecord
280
     1
102
RTVSPropertyOp0
 70
     1
102
RTVSPropertyOp1
 70
     1
102
RTVSPropertyOp2
 70
     1
102
RTVSPropertyOp3
 70
     1
102
RTVSPropertyOp4
 70
     1
102
RTVSPropertyOp5
 70
     1
102
RTVSPropertyOp6
 70
     1
102
RTVSPropertyOp7
 70
     1
102
RTVSPropertyOp8
 70
     1
102
RTVSPropertyOp9
 70
     1
102
RTVSPropertyOp10
 70
     1
102
RTVSPropertyOp11
 70
     1
102
RTVSPropertyOp12
 70
     1
102
RTVSPropertyOp13
 70
     1
102
RTVSPropertyOp14
 70
     1
102
RTVSPropertyOp15
 70
     1
102
RTVSPropertyOp16
 70
     1
102
RTVSPropertyOp17
 70
     1
102
RTVSPropertyOp18
 70
     1
102
RTVSPropertyOp19
 70
     1
102
RTVSPropertyOp20
 70
     1
102
RTVSPropertyOp21
 70
     1
102
RTVSPropertyOp22
 70
     1
102
RTVSPropertyOp23
 70
     1
102
RTVSPropertyOp24
 70
     1
102
RTVSPropertyOp25
 70
     1
102
RTVSPropertyOp26
 70
     1
102
RTVSPropertyOp27
 70
     1
102
RTVSPropertyOp28
 70
     1
102
RTVSPropertyOp29
 70
     1
102
RTVSPropertyOp30
 70
     1
102
RTVSPropertyOp31
 70
     1
102
RTVSPropertyOp32
 70
     1
  0
XRECORD
  5
5CA
102
{ACAD_REACTORS
330
5C9
102
}
330
5C9
100
AcDbXrecord
280
     1
102
RTVSPropertyOp0
 70
     1
102
RTVSPropertyOp1
 70
     1
102
RTVSPropertyOp2
 70
     1
102
RTVSPropertyOp3
 70
     1
102
RTVSPropertyOp4
 70
     1
102
RTVSPropertyOp5
 70
     1
102
RTVSPropertyOp6
 70
     1
102
RTVSPropertyOp7
 70
     1
102
RTVSPropertyOp8
 70
     1
102
RTVSPropertyOp9
 70
     1
102
RTVSPropertyOp10
 70
     1
102
RTVSPropertyOp11
 70
     1
102
RTVSPropertyOp12
 70
     1
102
RTVSPropertyOp13
 70
     1
102
RTVSPropertyOp14
 70
     1
102
RTVSPropertyOp15
 70
     1
102
RTVSPropertyOp16
 70
     1
102
RTVSPropertyOp17
 70
     1
102
RTVSPropertyOp18
 70
     1
102
RTVSPropertyOp19
 70
     1
102
RTVSPropertyOp20
 70
     1
102
RTVSPropertyOp21
 70
     1
102
RTVSPropertyOp22
 70
     1
102
RTVSPropertyOp23
 70
     1
102
RTVSPropertyOp24
 70
     1
102
RTVSPropertyOp25
 70
     1
102
RTVSPropertyOp26
 70
     1
102
RTVSPropertyOp27
 70
     1
102
RTVSPropertyOp28
 70
     1
102
RTVSPropertyOp29
 70
     1
102
RTVSPropertyOp30
 70
     1
102
RTVSPropertyOp31
 70
     1
102
RTVSPropertyOp32
 70
     1
  0
XRECORD
  5
5CC
102
{ACAD_REACTORS
330
5CB
102
}
330
5CB
100
AcDbXrecord
280
     1
102
RTVSPropertyOp0
 70
     1
102
RTVSPropertyOp1
 70
     1
102
RTVSPropertyOp2
 70
     1
102
RTVSPropertyOp3
 70
     1
102
RTVSPropertyOp4
 70
     1
102
RTVSPropertyOp5
 70
     1
102
RTVSPropertyOp6
 70
     1
102
RTVSPropertyOp7
 70
     1
102
RTVSPropertyOp8
 70
     1
102
RTVSPropertyOp9
 70
     1
102
RTVSPropertyOp10
 70
     1
102
RTVSPropertyOp11
 70
     1
102
RTVSPropertyOp12
 70
     1
102
RTVSPropertyOp13
 70
     1
102
RTVSPropertyOp14
 70
     1
102
RTVSPropertyOp15
 70
     1
102
RTVSPropertyOp16
 70
     1
102
RTVSPropertyOp17
 70
     1
102
RTVSPropertyOp18
 70
     1
102
RTVSPropertyOp19
 70
     1
102
RTVSPropertyOp20
 70
     1
102
RTVSPropertyOp21
 70
     1
102
RTVSPropertyOp22
 70
     1
102
RTVSPropertyOp23
 70
     1
102
RTVSPropertyOp24
 70
     1
102
RTVSPropertyOp25
 70
     1
102
RTVSPropertyOp26
 70
     1
102
RTVSPropertyOp27
 70
     1
102
RTVSPropertyOp28
 70
     1
102
RTVSPropertyOp29
 70
     1
102
RTVSPropertyOp30
 70
     1
102
RTVSPropertyOp31
 70
     1
102
RTVSPropertyOp32
 70
     1
  0
XRECORD
  5
5C2
102
{ACAD_REACTORS
330
5C1
102
}
330
5C1
100
AcDbXrecord
280
     1
102
RTVSPropertyOp0
 70
     1
102
RTVSPropertyOp1
 70
     1
102
RTVSPropertyOp2
 70
     1
102
RTVSPropertyOp3
 70
     1
102
RTVSPropertyOp4
 70
     1
102
RTVSPropertyOp5
 70
     1
102
RTVSPropertyOp6
 70
     1
102
RTVSPropertyOp7
 70
     1
102
RTVSPropertyOp8
 70
     1
102
RTVSPropertyOp9
 70
     1
102
RTVSPropertyOp10
 70
     1
102
RTVSPropertyOp11
 70
     1
102
RTVSPropertyOp12
 70
     1
102
RTVSPropertyOp13
 70
     1
102
RTVSPropertyOp14
 70
     1
102
RTVSPropertyOp15
 70
     1
102
RTVSPropertyOp16
 70
     1
102
RTVSPropertyOp17
 70
     1
102
RTVSPropertyOp18
 70
     1
102
RTVSPropertyOp19
 70
     1
102
RTVSPropertyOp20
 70
     1
102
RTVSPropertyOp21
 70
     1
102
RTVSPropertyOp22
 70
     1
102
RTVSPropertyOp23
 70
     1
102
RTVSPropertyOp24
 70
     1
102
RTVSPropertyOp25
 70
     1
102
RTVSPropertyOp26
 70
     1
102
RTVSPropertyOp27
 70
     1
102
RTVSPropertyOp28
 70
     1
102
RTVSPropertyOp29
 70
     1
102
RTVSPropertyOp30
 70
     1
102
RTVSPropertyOp31
 70
     1
102
RTVSPropertyOp32
 70
     1
  0
XRECORD
  5
5B6
102
{ACAD_REACTORS
330
5B5
102
}
330
5B5
100
AcDbXrecord
280
     1
102
RTVSPropertyOp0
 70
     1
102
RTVSPropertyOp1
 70
     1
102
RTVSPropertyOp2
 70
     1
102
RTVSPropertyOp3
 70
     1
102
RTVSPropertyOp4
 70
     1
102
RTVSPropertyOp5
 70
     1
102
RTVSPropertyOp6
 70
     1
102
RTVSPropertyOp7
 70
     1
102
RTVSPropertyOp8
 70
     1
102
RTVSPropertyOp9
 70
     1
102
RTVSPropertyOp10
 70
     1
102
RTVSPropertyOp11
 70
     1
102
RTVSPropertyOp12
 70
     1
102
RTVSPropertyOp13
 70
     1
102
RTVSPropertyOp14
 70
     1
102
RTVSPropertyOp15
 70
     1
102
RTVSPropertyOp16
 70
     1
102
RTVSPropertyOp17
 70
     1
102
RTVSPropertyOp18
 70
     1
102
RTVSPropertyOp19
 70
     1
102
RTVSPropertyOp20
 70
     1
102
RTVSPropertyOp21
 70
     1
102
RTVSPropertyOp22
 70
     1
102
RTVSPropertyOp23
 70
     1
102
RTVSPropertyOp24
 70
     1
102
RTVSPropertyOp25
 70
     1
102
RTVSPropertyOp26
 70
     1
102
RTVSPropertyOp27
 70
     1
102
RTVSPropertyOp28
 70
     1
102
RTVSPropertyOp29
 70
     1
102
RTVSPropertyOp30
 70
     1
102
RTVSPropertyOp31
 70
     1
102
RTVSPropertyOp32
 70
     1
  0
XRECORD
  5
5CE
102
{ACAD_REACTORS
330
5CD
102
}
330
5CD
100
AcDbXrecord
280
     1
102
RTVSPropertyOp0
 70
     1
102
RTVSPropertyOp1
 70
     1
102
RTVSPropertyOp2
 70
     1
102
RTVSPropertyOp3
 70
     1
102
RTVSPropertyOp4
 70
     1
102
RTVSPropertyOp5
 70
     1
102
RTVSPropertyOp6
 70
     1
102
RTVSPropertyOp7
 70
     1
102
RTVSPropertyOp8
 70
     1
102
RTVSPropertyOp9
 70
     1
102
RTVSPropertyOp10
 70
     1
102
RTVSPropertyOp11
 70
     1
102
RTVSPropertyOp12
 70
     1
102
RTVSPropertyOp13
 70
     1
102
RTVSPropertyOp14
 70
     1
102
RTVSPropertyOp15
 70
     1
102
RTVSPropertyOp16
 70
     1
102
RTVSPropertyOp17
 70
     1
102
RTVSPropertyOp18
 70
     1
102
RTVSPropertyOp19
 70
     1
102
RTVSPropertyOp20
 70
     1
102
RTVSPropertyOp21
 70
     1
102
RTVSPropertyOp22
 70
     1
102
RTVSPropertyOp23
 70
     1
102
RTVSPropertyOp24
 70
     1
102
RTVSPropertyOp25
 70
     1
102
RTVSPropertyOp26
 70
     1
102
RTVSPropertyOp27
 70
     1
102
RTVSPropertyOp28
 70
     1
102
RTVSPropertyOp29
 70
     1
102
RTVSPropertyOp30
 70
     1
102
RTVSPropertyOp31
 70
     1
102
RTVSPropertyOp32
 70
     1
  0
ENDSEC
  0
EOF
